Sound will begin in 5 seconds

Do Not Obey

01234567891011121314151617181920212223
E
B
G
D
A
E
B
0 1 2 3 4 5 6 7 8 9 10 11 12 13 14 15 16 17 18 19 20 21 22 23
Song Science #1: How Pros Use 6 Chords to Write Hit Songs
(/) Slide Up  (\) Slide Down  (h) Hammer On  (p) Pull Off  (b) Bend (r) Release (v) Vibrato

Stave 1:

E |--------------------------------------------------------------------
B |--------------------------------------------------------------------
Gb|--------------------------------------------------------------------
Db|-2-2-2-2-2-0-0-0-2-2-2-3----2-0-2----2-2-2-2-2-0-0-0-2-2-2-3----2-3-
Ab|--------------------------------------------------------------------

Stave 2:

E |--------------------------------------------------------------
B |--------------------------------------------------------------
Gb|--------------------------------------------------------------
Db|-2-2-2-2-2-0-0-0-2-2-2-3----2----2-2-2-2-2-0-0-0-2-2-2-0----3-
Ab|--------------------------------------------------------------

Stave 3:

E |---------------------------------------------------------------
B |-------------------------------------------------------5-4-2---
Gb|-2----2----2----2-2-2----2-2-2-2-2----2-2-2-2-2----2-2-------0-
Db|---------------------------------------------------------------
Ab|---------------------------------------------------------------

Stave 4:

E |----------------------------------------------------
B |----------------------------------------5-5-4-2-2-4-
Gb|-2-2-2----2-2-2-2-2----2-2-2-2-2----2-2-------------
Db|----------------------------------------------------
Ab|----------------------------------------------------

Stave 5:

E |-------------------------------------------
B |-------------------------------------------
Gb|-------------------------------------------
Db|-4-4-4-4-4-4-4-4-4-4-4-4-4-4-4-4-4-4/5-5-5-
Ab|-------------------------------------------

Stave 6:

E |----------------------------------------------------
B |----------------------------------------------------
Gb|----------------------------------------------------
Db|-4-4-4----4-4-4-4-4----4-4-4-4-4----4-4-5-5-5-5-5-5-
Ab|----------------------------------------------------

Stave 7:

E |----------------------------------------------------------------
B |----------------------------------------------------------------
Gb|---------------------------------------5-5-5----5-5-4-4-4-4-4-4-
Db|-4----5-4----1-1-1----1-1-1-1-1----1-1--------------------------
Ab|----------------------------------------------------------------

Stave 8:

E |------------------------------------------------------
B |------------------------------------------------------
Gb|------------------------------------------------------
Db|-4-4-4----4-4-4-4-4----4-4-4-4-4----4-4-4-5-4-2-4-2-1-
Ab|------------------------------------------------------

Stave 9:

E |--------------------------------------------------------------
B |--------------------------------------------------------------
Gb|--------------------------------------------------------------
Db|-2-2-2-2-2-0-0-0-2-2-2-5-2-1-2----2-2-2-2-2-0-0-0-2-2-2-5-2-1-
Ab|--------------------------------------------------------------

Stave 10:

E |----------------------------------------------------------------
B |-----2-----1-----2-----5-4-2-4--------2-----1-----2-----5-4-2---
Gb|-2-2---2-2---2-2---2-2------------2-2---2-2---2-2---2-2-------0-
Db|----------------------------------------------------------------
Ab|----------------------------------------------------------------

Stave 11:

E |----------------------------------------------------------------
B |-----2-----1-----2-----5-4-2-4--------2-----1-----2-----1-------
Gb|-2-2---2-2---2-2---2-2------------2-2---2-2---2-2---2-2---2-1-0-
Db|----------------------------------------------------------------
Ab|----------------------------------------------------------------

Stave 12:

E |--------------------------------------
B |--------------------------------------
Gb|-------6---6-------------6---6--------
Db|-5-5-5---5---5-5-5-5-5-5---5---5-5----
Ab|--------------------------------------

Stave 13:

E |-----------------
B |-2----5-4-1----2-
Gb|-----------------
Db|-----------------
Ab|-----------------

Stave 14:

E |------------------------------------------
B |------------------------------------------
Gb|-2-2----2-2-2-2----3----2-2----2-2-2------
Db|----------------------------------------3-
Ab|------------------------------------------

Stave 15:

E |------------
B |----------4-
Gb|---6----3---
Db|-5----------
Ab|------------

http://www.guitartabcreator.com
Guitar Tab Creator is intended to store guitar tab created through the tool. It currently does not support in-line text editing. Any text you place in here will be lost. If you need to comment on your tab, please use the "Tab Notes" section located below.