Sound will begin in 5 seconds

Bred To Fail

01234567891011121314151617181920212223
E
B
G
D
A
E
B
0 1 2 3 4 5 6 7 8 9 10 11 12 13 14 15 16 17 18 19 20 21 22 23
Song Science #1: How Pros Use 6 Chords to Write Hit Songs
(/) Slide Up  (\) Slide Down  (h) Hammer On  (p) Pull Off  (b) Bend (r) Release (v) Vibrato

Stave 1:

E |-----------------------------
B |-----------------------------
Gb|-----------5--5--5--5--3--2--
Db|--5--3--1--------------------
Ab|-----------------------------

Stave 2:

E |--------------9-----------------7--------------------------------------------------
B |--7--7--7--7-----5--5--5--5--5--------------------------------------5--5--5--5-----
Gb|-----------------------------------5--5--5--5--5--5--5--5--7--8--8-----------------
Db|--------------------------------------------------------------------------------5--
Ab|-----------------------------------------------------------------------------------

Stave 3:

E |-----------------------------------------------------
B |-----------------------------------------------------
Gb|--3--0--0--0--5--0--0--0--3--5--6--0--0--0--0--0--0--
Db|-----------------------------------------------------
Ab|-----------------------------------------------------

Stave 4:

E |-----------------------------------------------------
B |-----7-----7-----8-----8-----5-----5-----8-----------
Gb|--0-----0-----0-----0-----0-----0-----0-----0--0--0--
Db|-----------------------------------------------------
Ab|-----------------------------------------------------

Stave 5:

E |-----------------------------------------------------------
B |-----------------------------------------------------------
Gb|--3--0--0--0--5--0--0--0--3--5--0--0--0--6--6--6--6--6--6--
Db|-----------------------------------------------------------
Ab|-----------------------------------------------------------

Stave 6:

E |-----------------------------------------------
B |--------------------------------7--------------
Gb|--7--0--0--6--0--0--7--0--6--7-----0--0--0--0--
Db|-----------------------------------------------
Ab|-----------------------------------------------

Stave 7:

E |-----------------------------------
B |-----------------------------------
Gb|--7--0--0--6--0--0--7--0--7--6-----
Db|--------------------------------8--
Ab|-----------------------------------

Stave 8:

E |--------------------
B |--------------------
Gb|--0--8--0--3--2-----
Db|-----------------3--
Ab|--------------------

Stave 9:

E |--------------------------------------
B |--------------------------------------
Gb|--------------------------------------
Db|--5--5--5--5--5--5--5--5--5--1--4--1--
Ab|--------------------------------------

Stave 10:

E |-----------------------------------
B |-----------------------------------
Gb|-----------------------------------
Db|--5--5--5--5--5--5--5--5--5--1--4--
Ab|-----------------------------------

Stave 11:

E |--------------------
B |--------------------
Gb|--0--3--2-----0--8--
Db|-----------3--------
Ab|--------------------

Stave 12:

E |-----------------------------------------------------------7--6-----
B |--7--------------5--8--------------5--7--------------5--8--------8--
Gb|-----0--0--0--0--------0--0--0--0--------0--0--0--0-----------------
Db|--------------------------------------------------------------------
Ab|--------------------------------------------------------------------

Stave 13:

E |-----------------------------------------------------------
B |--7--------------5--8--------------5--7--------------------
Gb|-----0--0--0--0--------0--0--0--0--------0--0--0--0--8--7--
Db|-----------------------------------------------------------
Ab|-----------------------------------------------------------

Stave 14:

E |-----------------------------------------------------|-----------|--------------------
B |-----------------------------------------------------|-----------|--------------------
Gb|--12--0--0--12--0--0--12--0--8--8--8--8--8--8--8-----|--8--7--5--|--8--7--5--5--7--8--
Db|-----------------------------------------------------|-----------|--------------------
Ab|-----------------------------------------------------|-----------|--------------------

Stave 15:

E |------------------------------------------------------------------------------------------------------
B |------------------------------------------------------------------------5--7--7--7--------------------
Gb|-----------------------8--8--8--8-----8--10--8--7--7--7-----5--------------------------8--8--8-----7--
Db|--1--1--1--1--1-----0------------------------------------------5--5-----------------------------------
Ab|------------------------------------------------------------------------------------------------------

Stave 16:

E |-----------------------------------------------------------------
B |-----------------------------------------------------------------
Gb|-----------------5--7--8--8--8--8--8--8--8--8--7--7--7--7--7-----
Db|--5--5--5--5--5-----------------------------------------------8--
Ab|-----------------------------------------------------------------

Stave 17:

E |--------------------4h5h4--------------------------------------------
B |--------7-----5--7---------5-----------------------------------------
Gb|---------------------------------------------------------------3--5--
Db|--5---------------------------1--1--1--1--0--0--0--0-----3--5--------
Ab|---------------------------------------------------------------------

Stave 18:

E |------------------------------------------------------------------------10---------------------------9--
B |-----------7-----7--9--10--------------10--------9--------10-----9--10---------------9-----10-----9-----
Gb|--0-----0-----0---------------8--8--8------8--8-----8--8------8----------------7--7-----7------7--------
Db|--------------------------------------------------------------------------------------------------------
Ab|--------------------------------------------------------------------------------------------------------

http://www.guitartabcreator.com
Guitar Tab Creator is intended to store guitar tab created through the tool. It currently does not support in-line text editing. Any text you place in here will be lost. If you need to comment on your tab, please use the "Tab Notes" section located below.