Sound will begin in 5 seconds

Ascending

01234567891011121314151617181920212223
E
B
G
D
A
E
B
0 1 2 3 4 5 6 7 8 9 10 11 12 13 14 15 16 17 18 19 20 21 22 23
Song Science #1: How Pros Use 6 Chords to Write Hit Songs
(/) Slide Up  (\) Slide Down  (h) Hammer On  (p) Pull Off  (b) Bend (r) Release (v) Vibrato

Stave 1:

E |--------------------------------------------------
B |--------------------------------------------------
Gb|--------------------------------------------------
Db|-----0-----0-----0-----0-----0--0--0--0--0--0--0--
Ab|--------------------------------------------------

Stave 2:

E |--------------------------------------------------------
B |--------------------------------------------------------
Gb|--------------------------------------------------------
Db|--0--0--0--0-----0--0--0--0-----0--0--0--0--1--1--1--1--
Ab|--------------------------------------------------------

Stave 3:

E |------------------------------------------
B |-----------------------------------10-----
Gb|--7--5--------------7--5--------8------8--
Db|--------7--8--0-----------7--8------------
Ab|------------------------------------------

Stave 4:

E |--------------------------------
B |--------------------------------
Gb|--7--5-----------7--5-----------
Db|--------7--8--0--------7--8--1--
Ab|--------------------------------

Stave 5:

E |--------------------------------------------------------------------------------------------------
B |--------------------------------------------------6-----------------------------------------------
Gb|--5--7--------------------7--8-----5--7-----7--8-----7--------------------5--7-----3--5-----2--3--
Db|--------0--0--0--0--0--0--------0--------0--------------0--0--0--0--0--0--------0--------0--------
Ab|--------------------------------------------------------------------------------------------------

Stave 6:

E |--------------------------------------------------------------------------------------------
B |--------------------------------------------------6-----------------------6--7--6-----6-----
Gb|--5--7--------------------7--8-----5--7-----7--8-----7-----------------------------8-----7--
Db|--------0--0--0--0--0--0--------0--------0--------------0--0--0--0--0--0--------------------
Ab|--------------------------------------------------------------------------------------------

Stave 7:

E |-----------------------------------
B |-----------------------------------
Gb|-----3--2--------------3--2-----5--
Db|--1--------3--4-----1--------4-----
Ab|-----------------------------------

Stave 8:

E |-----------------------------------------------------------------
B |-----------------------------------------------------------------
Gb|-----------------------------------------------------------------
Db|--1--0--0--0--0--1--0--0--0--0--0--1--0--0--0--0--1--0--1--4--0--
Ab|-----------------------------------------------------------------

Stave 9:

E |-----------------------------------------------------------------
B |-----------------------------------------------------------------
Gb|-----------------------------------------------------------------
Db|--1--0--0--0--0--1--0--0--0--0--1--0--0--0--0--1--0--1--5--4--0--
Ab|-----------------------------------------------------------------

Stave 10:

E |---------------------------------------------------------------
B |---------------------------------------------------------------
Gb|--8--------------8--------------8--------------8--7--8--11--7--
Db|-----0--0--0--0-----0--0--0--0-----0--0--0--0------------------
Ab|---------------------------------------------------------------

Stave 11:

E |--------------------------------------------------
B |--------------------------------------------------
Gb|--8--------------8--------------8--------------7--
Db|-----0--0--0--0-----0--0--0--0-----0--0--0--0-----
Ab|--------------------------------------------------

Stave 12:

E |--------------------------------------------------------
B |-----------------------------------------------3--5--4--
Gb|--------3--3--0--0--2--2-----------3--3--0--0-----------
Db|--0--0-----------------------0--0-----------------------
Ab|--------------------------------------------------------

Stave 13:

E |-----------------------------
B |-----------------------------
Gb|--------3--3--0--0-----------
Db|--0--0--------------1--7--5--
Ab|-----------------------------

Stave 14:

E |-----------------------------------------
B |-----------------------------------------
Gb|--------------------------------------7--
Db|--0--------0--0--0--------1-----0--------
Ab|-----------------------------------------

Stave 15:

E |--------------------------
B |--------------------------
Gb|--------------3--3--2--2--
Db|--0--0--5--5--------------
Ab|--------------------------

Stave 16:

E |--------------------
B |--------------------
Gb|-----------------7--
Db|--1--1--1--1--1-----
Ab|--------------------

http://www.guitartabcreator.com
Guitar Tab Creator is intended to store guitar tab created through the tool. It currently does not support in-line text editing. Any text you place in here will be lost. If you need to comment on your tab, please use the "Tab Notes" section located below.