Sound will begin in 5 seconds

The Girl From Ipanema (solo)

01234567891011121314151617181920212223
E
B
G
D
A
E
B
0 1 2 3 4 5 6 7 8 9 10 11 12 13 14 15 16 17 18 19 20 21 22 23
Song Science #1: How Pros Use 6 Chords to Write Hit Songs
(/) Slide Up  (\) Slide Down  (h) Hammer On  (p) Pull Off  (b) Bend (r) Release (v) Vibrato

Stave 1:

E|-----------------------------------------------
B|-----------------------5--8--6--5-----5--------
G|-----------5--9-----5--------------7-----5--7--
D|--------7--------7-----------------------------
A|--7--8-----------------------------------------
E|-----------------------------------------------

Stave 2:

E|--------------------------------------------
B|--------------5--4--3-----------------------
G|--------2--5-----------5--4--2--------------
D|-----3--------------------------5--3--2-----
A|--5--------------------------------------5--
E|--------------------------------------------

Stave 3:

E|--------------5--4--3----------------------------
B|--------3--6-----------6--5--4--3--2------------/
G|-----5--------------------------------5--3--2----
D|--5--------------------------------------------5-
A|-------------------------------------------------
E|-------------------------------------------------

Stave 4:

E|--------------------------------------------
B|--------------5--3-----------1--4--2--------
G|--------2--5--------------1-----------5--3--
D|--2--3-----------------2--------------------
A|--------------------4-----------------------
E|--------------------------------------------

Stave 5:

E|-----------------------------------------------
B|-----------------------------------------------
G|--5--2--3--5--2-----------------7--4--5--7--4--
D|-----------------5--2--3--5--2-----------------
A|-----------------------------------------------
E|-----------------------------------------------

Stave 6:

E|-----------------6--3--5--6--3--------------------------------------
B|--6--3--5--6--3-----------------6--5--5--4--2-----------------------
G|-----------------------------------------------5--3--2--5--2--------
D|--------------------------------------------------------------3--2--
A|--------------------------------------------------------------------
E|--------------------------------------------------------------------

http://www.guitartabcreator.com
Guitar Tab Creator is intended to store guitar tab created through the tool. It currently does not support in-line text editing. Any text you place in here will be lost. If you need to comment on your tab, please use the "Tab Notes" section located below.