Sound will begin in 5 seconds

Wicked Games Bass Tab

01234567891011121314151617181920212223
E
B
G
D
A
E
B
0 1 2 3 4 5 6 7 8 9 10 11 12 13 14 15 16 17 18 19 20 21 22 23
Song Science #1: How Pros Use 6 Chords to Write Hit Songs
(/) Slide Up  (\) Slide Down  (h) Hammer On  (p) Pull Off  (b) Bend (r) Release (v) Vibrato

Stave 1:

E|--------------------------------------------------------------------------------------------------|--
B|--------------------------------------------------------------------------------------------------|--
G|--------------------------------------------------------------------------------------------------|--
D|--------------------------------------------------------------------------------------------------|--
A|--------------------------------------------------------------------------------------------------|--
E|--7----7--7--7----5----5--5--5----5/12--12--12--12--12--12--12--12----12--12--12--12--12--12--12--|--

Stave 2:

E|----------------------------------------------------------------------------|--
B|----------------------------------------------------------------------------|--
G|----------------------------------------------------------------------------|--
D|----------------------------------------------------------------------------|--
A|--14------12----------------------------------------------------------------|--
E|------------------12--12--12--12--12--12--12----12--12--12--12--12--12--12--|--

Stave 3:

E|--------------------------------------------------------------------|--
B|--------------------------------------------------------------------|--
G|--------------------------------------------------------------------|--
D|--------------------------------------------------------------------|--
A|--14------12--------------------------------------------------------|--
E|------------------12--12--12--12--12--12--12----12--12--12--12--12--|--

Stave 4:

E|------------------------------------------------------------------------------------------------------
B|------------------------------------------------------------------------------------------------------
G|------------------------------------------------------------------------------------------------------
D|------------------------------------------------------------------------------------------------------
A|------------------------------------------------------------------------------------------------------
E|--7--7--7--7--7--7--7--7--5--5--5--5--5/10--10--10--12--12--12--12--12--12--12--12----12--12--12--12--

Stave 5:

E|------------------|--
B|------------------|--
G|------------------|--
D|------------------|--
A|------------------|--
E|--12--12--12--12--|--

Stave 6:

E|------------------------------------------------------------------------------------------------------
B|------------------------------------------------------------------------------------------------------
G|------------------------------------------------------------------------------------------------------
D|------------------------------------------------------------------------------------------------------
A|------------------------------------------------------------------------------------------------------
E|----7--7--7--7--7--7--7--7--5--5--5--5--5/10--10--10--12--12--12--12--12--12--12--12----12--0--0--12--

Stave 7:

E|-----------------|----------------------------------------------------------------|--
B|-----------------|----------------------------------------------------------------|--
G|-----------------|----------------------------------------------------------------|--
D|-----------------|----------------------------------------------------------------|--
A|-----------------|----------------------------------------------------------------|--
E|----0--0--12--0--|--7----7--7--7----7----7--7--7----7----7--7--7----7----7--7--7--|--

Stave 8:

E|---------------------------------------------------------------------------------------------------
B|---------------------------------------------------------------------------------------------------
G|---------------------------------------------------------------------------------------------------
D|---------------------------------------------------------------------------------------------------
A|-------------------------------------11------------------------------------------------------------
E|----7----7--7--7----5----5--5--5/12------12--12--12--12--12--14--12----12--12--12--12--10--10--10--

Stave 9:

E|----------------------------------------------------------------------------------------------------
B|----------------------------------------------------------------------------------------------------
G|----------------------------------------------------------------------------------------------------
D|----------------------------------------------------------------------------------------------------
A|----------------------------------------------------------------------------------------------------
E|----7----7--7--7----5----5--5--5----5/12--12--12--12--12--12--12--12----12--12--12--12--12--12--12--

Stave 10:

E|------------------------------------------------------------------|--
B|------------------------------------------------------------------|--
G|------------------------------------------------------------------|--
D|------------------------------------------------------------------|--
A|----12h14------12------------------12h14------12------------------|--
E|-----------------------12-----------------------------12----------|--

Stave 11:

E|---------------------------------------------------------------------------------------------
B|---------------------------------------------------------------------------------------------
G|---------------------------------------------------------------------------------------------
D|---------------------------------------------------------------------------------------------
A|---------------------------------------------------------------------------------------------
E|----7--7--7--7--7--7--7--7--5--5--5--5--5--10--10--10--12--12--12--12--12--12--12--12----12--

Stave 12:

E|--------------------------------------------------------------------------------------------------------
B|--------------------------------------------------------------------------------------------------------
G|--------------------------------------------------------------------------------------------------------
D|--------------------------------------------------------------------------------------------------------
A|--------------------------------------------------------------------------------------------------------
E|----12--12--12--12--12--12--12----7--7--7--7--7--7--7--7--5--5--5--5--5/10--10--10--12--0--0--12--0--0--

Stave 13:

E|--------------------------------------|--
B|--------------------------------------|--
G|--------------------------------------|--
D|--------------------------------------|--
A|--------------------------------------|--
E|----12--0----12--0--0--12--0--12--12--|--

Stave 14:

E|--------------------------------------------------------------------------------------------------
B|--------------------------------------------------------------------------------------------------
G|--------------------------------------------------------------------------------------------------
D|------------------------------------------------------------------18--18--18--18--18--------------
A|--------------------------------------------------------------------------------------------------
E|----7--7--7--7--7--7--7--7--5--5--5--5--5/10--10--10--12--12--12----------------------12--12--12--

Stave 15:

E|----------------------------------------------------------------------------------------------------
B|----------------------------------------------------------------------------------------------------
G|----------------------------------------------------------------------------------------------------
D|----------------------------------------------------------------------------------------------------
A|----18--18--18--18--18--------------------------12--12--12--12--12--------------------------18--18--
E|------------------------7--7--7--7--7--7--7--7----------------------10--10--10--12--12--12----------

Stave 16:

E|------------------------------------------------|--
B|------------------------------------------------|--
G|------------------------------------------------|--
D|------------------------------------------------|--
A|----18--18--18--------------18--18--18--18--18--|--
E|----------------12--12--12----------------------|--

Stave 17:

E|----------------------------------------------------------------------------------------------
B|----------------------------------------------------------------------------------------------
G|----------------------------------------------------------------------------------------------
D|----------------------------------------------------------------------------------------------
A|----------------------------------------------------------------------------------------------
E|----7----7------5----5------5/12--12--12--12--12--12--12--12--12--12--12--12--12--10--10--10--

Stave 18:

E|-------------------------------------------------------------------------------------------------
B|-------------------------------------------------------------------------------------------------
G|-------------------------------------------------------------------------------------------------
D|-------------------------------------------------------------------------------------------------
A|-------------------------------------------------------------------------------------------------
E|----7----7------5----5------5/12--12--12--12--12--12--12--12--12--12--12--12--12--14--14--14--7--

Stave 19:

E|-------------------------------------------------------------------------|--
B|-------------------------------------------------------------------------|--
G|-------------------------------------------------------------------------|--
D|-------------------------------------------------------------------------|--
A|----12h14--14--14--14--14--14--14--14--14--14--14--14--14--14--14--14\7--|--
E|-------------------------------------------------------------------------|--

Stave 20:

E|-------------------------------------------------------------------------------------------------------
B|-------------------------------------------------------------------------------------------------------
G|-------------------------------------------------------------------------------------------------------
D|-------------------------------------------------------------------------------------------------------
A|-------------------------------------------------------------------------------------------------------
E|----7--7--7--7--7--7--7--7--5--5--5--5--5--5--5--5/12--12--12--12--12--12--12--12--12--12--12--12--12--

Stave 21:

E|--------|--
B|--------|--
G|--------|--
D|--------|--
A|--------|--
E|----12--|--

Stave 22:

E|--------------------------------------------------------------------------------------------------------
B|--------------------------------------------------------------------------------------------------------
G|--------------------------------------------------------------------------------------------------------
D|--------------------------------------------------------------------------------------------------------
A|--------------------------------------------------------------------------------------------------------
E|----7--7--7--7--7--7--7--7/17--17--17--17--17--17--17--17\12--0--0--12--0--0--12--0----12--0--0--12--0--

Stave 23:

E|------------|----------------------------------------------------------------------------------------
B|------------|----------------------------------------------------------------------------------------
G|------------|----------------------------------------------------------------------------------------
D|------------|----------------------------------------------------------------------------------------
A|------------|----------------------------------------------------------------------------------------
E|----12--12--|--7--7--7--7--7--7--7--7--5--5--5--5--5--5--5--5/12--0--0--12--0--0--12--0----12--0--0--

Stave 24:

E|-------------------
B|-------------------
G|-------------------
D|-------------------
A|-------------------
E|----12--0--12--12--

http://www.guitartabcreator.com
Guitar Tab Creator is intended to store guitar tab created through the tool. It currently does not support in-line text editing. Any text you place in here will be lost. If you need to comment on your tab, please use the "Tab Notes" section located below.