Sound will begin in 5 seconds

Wicked Game Clean Guitar

01234567891011121314151617181920212223
E
B
G
D
A
E
B
0 1 2 3 4 5 6 7 8 9 10 11 12 13 14 15 16 17 18 19 20 21 22 23
Song Science #1: How Pros Use 6 Chords to Write Hit Songs
(/) Slide Up  (\) Slide Down  (h) Hammer On  (p) Pull Off  (b) Bend (r) Release (v) Vibrato

Stave 1:

E|--------------------------------------------------------------
B|--------------------------------------------------------------
G|----------------------7----------7----------7-----------7-----
D|--12-------11------9-----9----9-----9----9-----9--9--9-----9--
A|--------------------------------------------------------------
E|--------------------------------------------------------------

Stave 2:

E|-------------------------------------------------------------------
B|-------------------------------------------------------------------
G|-------------------------7-----------7-----------7-----------7-----
D|--12--------14--------9-----9-----9-----9-----9-----9--9--9-----9--
A|-------------------------------------------------------------------
E|-------------------------------------------------------------------

Stave 3:

E|------------------------------------------------------------------
B|------------------------------------------------------------------
G|----------------------7--7--7--7--7--7--7----7--7--7--7--7--7--7--
D|--12----------11------9--9--9--9--9--9--9----9--9--9--9--9--9--9--
A|------------------------------------------------------------------
E|------------------------------------------------------------------

Stave 4:

E|-----------------------------------------------------------------------------------
B|-----------------------------------------------------------------------------------
G|----7--7--7--7--7--7--7--7----9--9--9--9--9--9--9--9----9--9--9--9--9--9b10--9--9--
D|----9--9--9--9--9--9--9--9----7--7--7--7--7--7--7--7-------------------------------
A|--------------------------------------------------------7--7--7--7--7--7-----7--7--
E|-----------------------------------------------------------------------------------

Stave 5:

E|----------------------------------------------------------------
B|-------------------------------7--------------------------------
G|----9--9--9--9--9--9b10--9--9--7--------------------------------
D|-------------------------------9--------------------------------
A|----7--7--7--7--7--7-----7--7-----------------------------------
E|----------------------------------------------------------------

Stave 6:

E|--------------------------------------------------------------------------------------------------
B|--------------------------------------------------------------------------------------------------
G|----11--11--11--11--11--11--11--11----9---9---9---9---9---9---9---9-------4--4--4--4--4--4--4--4--
D|----12--12--12--12--12--12--12--12----11--11--11--11--11--11--11--11------6--6--6--6--6--6--6--6--
A|--------------------------------------------------------------------------------------------------
E|--------------------------------------------------------------------------------------------------

Stave 7:

E|-------------------------
B|-------------------------
G|----4--4--4--4--4--4--4--
D|----6--6--6--6--6--6--6--
A|-------------------------
E|-------------------------

Stave 8:

E|--------
B|----12--
G|----11--
D|----12--
A|--------
E|--------

Stave 9:

E|----------12----------------------------12--------------12------------------------------
B|----15------------15------------15--------------15--------------15------------15--------
G|------------------------14--------------------------------------------13----------------
D|----------------------------------------------------------------------------------------
A|----------------------------------------------------------------------------------------
E|----------------------------------------------------------------------------------------

Stave 10:

E|----------------------------------------------------------------------------------------------------
B|----15--15--15--15--15--15--15--15--15--15--15--15--15--15--15--15--15--15--15--15--15--15--15--15--
G|----14--14--14--14--14--14--14--14--14--14--14--14--14--14--14--14--13--13--13--13--13--13--13--13--
D|----------------------------------------------------------------------------------------------------
A|----------------------------------------------------------------------------------------------------
E|----------------------------------------------------------------------------------------------------

Stave 11:

E|-----------------------------------------------------------------
B|---------15--15--15--15--15--15--15--15--15--15--15--15--15--15--
G|--14b16------14--14--14--14--14--14--14--14--14--14--14--14--14--
D|-----------------------------------------------------------------
A|-----------------------------------------------------------------
E|-----------------------------------------------------------------

Stave 12:

E|---------------------------------------------------------------------------------------------------------
B|---------------------------------------------------------------------------------------------------------
G|---------------------------------------------------------------------------------------------------------
D|----9--9--9--9--9--9--9--9--7--7--7--7--7--12--12--12-----------13--13--13--13--13-----------13--13--13--
A|----------------------------------------------------------------12--12--12--12--12-----------12--12--12--
E|----7--7--7--7--7--7--7--7--5--5--5--5--5--10--10--10--0--0--0----------------------0--0--0--------------

Stave 13:

E|-------------------------------------------------------------------------------
B|-------------------------------------------------------------------------------
G|-------------------------------------------------------------------------------
D|----9--9--9--9--9--9--9--9--7--7--7--7--7--7--7--7-----------------------------
A|----9--9--9--9--9--9--9--9--7--7--7--7--7--7--7--7-----------------------------
E|----7--7--7--7--7--7--7--7--5--5--5--5--5--5--5--5--12--0--0--12--0--0--12--0--

Stave 14:

E|-----------------------------
B|-----------------------------
G|-----------------------------
D|-----------------------------
A|-----------------------------
E|----12--0--0--12--0--12--12--

Stave 15:

E|----
B|----
G|----
D|----
A|----
E|----

http://www.guitartabcreator.com
Guitar Tab Creator is intended to store guitar tab created through the tool. It currently does not support in-line text editing. Any text you place in here will be lost. If you need to comment on your tab, please use the "Tab Notes" section located below.