Sound will begin in 5 seconds

Bump N Grind

01234567891011121314151617181920212223
E
B
G
D
A
E
B
0 1 2 3 4 5 6 7 8 9 10 11 12 13 14 15 16 17 18 19 20 21 22 23
Song Science #1: How Pros Use 6 Chords to Write Hit Songs
(/) Slide Up  (\) Slide Down  (h) Hammer On  (p) Pull Off  (b) Bend (r) Release (v) Vibrato

Stave 1:

E|-----------------------------------|-----------------------|--
B|-----------------------------------|-----------------------|--
G|-----------------------------------|-----------------------|--
D|-----------------------------------|-----------------------|--
A|---------7-------------------7-----|-----------------------|--
E|----0-------0------0----0-------0--|--5\7--7--7--7--7------|--

Stave 2:

E|-----------------------------------|---------------------------|-------------------------------|--
B|-----------------------------------|---------------------------|-------------------------------|--
G|-----------------------------------|---------------------------|-------------------------------|--
D|-----------------------------------|---------------------------|-------7-----------------7-----|--
A|---------7-------------------7-----|---------9-----------------|-------------------------------|--
E|----0-------0------0----0-------0--|--5\7-------7----7----6----|--5-------5----5----5-------5--|--

Stave 3:

E|---------------------------------------|-------------------------------|---------------------------|--
B|---------------------------------------|-------------------------------|---------------------------|--
G|---------------------------------------|-------------------------------|---------------------------|--
D|----------------------------2----------|-------------------------------|---------------------------|--
A|---------4-------2----2--4-----4--2----|-------7-----------------7-----|---------9-----------------|--
E|----2-------2--------------------------|--0-------0----0----0-------0--|--5\7-------7----7----7h9--|--

Stave 4:

E|---------------------------------|--------------------------------------|--
B|---------------------------------|--------------------------------------|--
G|---------------------------------|--------------------------------------|--
D|---------7-----------------7-----|--------------------------2-----------|--
A|---------------------------------|-------4-------2----2--4-----4--2--4--|--
E|----5-------5----5----5-------5--|--2-------2---------------------------|--

Stave 5:

E|------------------------------------------|------------------------------------|--
B|------------------------------------------|------------------------------------|--
G|------------------------------------------|------------------------------------|--
D|------------------------------------------|------------------------------------|--
A|---------------------7----------------12--|-------------------6--4--4----------|--
E|----5--5--5--5--7\9-------5--5--5--5------|--4--4--4--4--6\8-------------4--3--|--

Stave 6:

E|--------------------------------------------------|--------------------------------------------------
B|--------------------------------------------------|--------------------------------------------------
G|--------------------------------------------------|--------------------------------------------------
D|--------------------------------------------------|--------------------------------------------------
A|----9--9--9--9--9h11--9------9--9--9--9--9h11--9--|--14--14--14--14--14--14--14--14--14--14--14--14--
E|--------------------------------------------------|--------------------------------------------------

Stave 7:

E|----------|--
B|----------|--
G|----------|--
D|----------|--
A|----14----|--
E|----------|--

Stave 8:

E|-----------------------------------------|------------------------------------|-------------------
B|-----------------------------------------|------------------------------------|-------------------
G|-----------------------------------------|------------------------------------|-------------------
D|------------------------------------7----|------------------------------------|-------------------
A|-------------------7---------------------|-------------------6--4--4----------|-------------------
E|--5--5--5--5--7\9-------5--5--5--5-------|--4--4--4--4--6\8-------------4--3--|--2--2--2--2--2----

Stave 9:

E|---------------------|----------------------------------------------------------|--
B|---------------------|----------------------------------------------------------|--
G|---------------------|----------------------------------------------------------|--
D|---------------------|----------------------------------------------------------|--
A|---------------------|--9\14--14--14--14--14--14--14--14--14--14--14--14--14----|--
E|----2--2--2--2--2----|----------------------------------------------------------|--

Stave 10:

E|--------------------------------|----------------------------|------------------------------|--
B|--------------------------------|----------------------------|------------------------------|--
G|--------------------------------|----------------------------|------------------------------|--
D|-----------9-------------9------|---------9------------------|---------7-------------7------|--
A|----7-------------7-------------|----------------------------|------------------------------|--
E|--------------------------------|--7-------------7------6----|--5-------------5-------------|--

Stave 11:

E|-----------------------------------|-------------------------------|----------------------------|--
B|-----------------------------------|-------------------------------|----------------------------|--
G|-----------------------------------|---------9-------------9-------|----------------------------|--
D|-----------4-----------------------|-------------------------------|---------9------------------|--
A|-----------------------------------|--7-------------7---------7----|----------------------------|--
E|----2-------------5h7--7--7--7--7--|-------------------------------|--7-------------7------7\9--|--

Stave 12:

E|-------------------------------|-----------------------------------------|--
B|-------------------------------|-----------------------------------------|--
G|-------------------------------|-----------------------------------------|--
D|---------7-------------7-------|---------4-----------------2-------------|--
A|-------------------------------|----------------2----2--4-----4--2--4----|--
E|----5-----------5---------5----|--2--------------------------------------|--

Stave 13:

E|----
B|----
G|----
D|----
A|----
E|----

http://www.guitartabcreator.com
Guitar Tab Creator is intended to store guitar tab created through the tool. It currently does not support in-line text editing. Any text you place in here will be lost. If you need to comment on your tab, please use the "Tab Notes" section located below.