Sound will begin in 5 seconds

Rebirth Rythm Guitar

Chords
01234567891011121314151617181920212223
E
B
G
D
A
E
B
0 1 2 3 4 5 6 7 8 9 10 11 12 13 14 15 16 17 18 19 20 21 22 23
(/) Slide Up  (\) Slide Down  (h) Hammer On  (p) Pull Off  (b) Bend (r) Release (v) Vibrato

Stave 1:

E|--------
B|--------
G|--------
D|--5--4--
A|--3--2--
E|--3--2--

Stave 2:

E|---------------------------------------------------------------------------------
B|---------------------------------------------------------------------------------
G|---------------------------------------------------------------------------------
D|--5--5-----5--------4--4-----4--------9--9--10--9--------3--3--3--3--3--------2--
A|--3--3-----3--------2--2-----2--------7--7--7---7--------1--1--0--1--0--------2--
E|--3--3--5--3--------2--2--3--2--------7--7--7---7--------1--1--0--1--0--------0--

Stave 3:

E|-------------------------------------------------------------
B|-------------------------------------------------------------
G|-------------------------------------------------------------
D|--5--------------4--------------9---------9--10--3--------2--
A|--3--------5--6--2--------5--4--7----------------1--------2--
E|--3--5--6--------2--4--5--------7--9--10---------1--3--4--0--

Stave 4:

E|-----
B|-----
G|-----
D|--5--
A|--3--
E|--3--

Stave 5:

E|--------
B|--------
G|--------
D|--5--4--
A|--3--2--
E|--3--2--

http://www.guitartabcreator.com
Guitar Tab Creator is intended to store guitar tab created through the tool. It currently does not support in-line text editing. Any text you place in here will be lost. If you need to comment on your tab, please use the "Tab Notes" section located below.