Sound will begin in 5 seconds

Rebirth Bass

01234567891011121314151617181920212223
E
B
G
D
A
E
B
0 1 2 3 4 5 6 7 8 9 10 11 12 13 14 15 16 17 18 19 20 21 22 23
(/) Slide Up  (\) Slide Down  (h) Hammer On  (p) Pull Off  (b) Bend (r) Release (v) Vibrato

Stave 1:

G|--------------------------------------------------------------
D|--------------------------------------------------------------
A|-----------5-----------5--6--5-----------4-----------4--5--4--
E|--3--5--6-----3--5--6-----------2--4--5-----2--4--5-----------

Stave 2:

G|--------------------------------------------------------------------------------------------------
D|--------------------------------------------------------------------------------------------------
A|--------------------------------------------------------------------------------------------------
E|--3--3--3--3--3--3--3--3--2--2--2--2--2--2--2--2--7--7--7--7--7--7--7--7--1--1--1--1--1--0--1--0--

Stave 3:

G|-----------------------------------------------------
D|--------5-----------4-----------9-----------3--------
A|-----3-----------2-----------7-----------1-----------
E|--3-----------2-----------7-----------1-----------0--

Stave 4:

G|-----------------
D|-----------------
A|-----------------
E|--3--3--3--3--3--

Stave 5:

G|-----------
D|-----------
A|-----------
E|--3-----2--

http://www.guitartabcreator.com
Guitar Tab Creator is intended to store guitar tab created through the tool. It currently does not support in-line text editing. Any text you place in here will be lost. If you need to comment on your tab, please use the "Tab Notes" section located below.