Sound will begin in 5 seconds

I Will Look Up

Chords
01234567891011121314151617181920212223
E
B
G
D
A
E
B
0 1 2 3 4 5 6 7 8 9 10 11 12 13 14 15 16 17 18 19 20 21 22 23
(/) Slide Up  (\) Slide Down  (h) Hammer On  (p) Pull Off  (b) Bend (r) Release (v) Vibrato

(W|WW) Whole (H|HH) Half (Q|QQ) Quarter (E|EE) 8th (S|SS) 16th (T|TT) 32nd (X|XX) 64th

Stave 1:
t: E E E E E E E E E E E E E E E S S E E E E E E E E E E E E E E S S
E|----------------------------------------------------|-------------------------------------------------|--
B|--7--7--5--5--------------------5--5--7--7--5--5h7--|--7--7--5--5--------------------5--5--7--7--5h7--|--
G|--------------6--6--4--4--7--7----------------------|--------------6--6--4--4--7--7-------------------|--
D|----------------------------------------------------|-------------------------------------------------|--
A|----------------------------------------------------|-------------------------------------------------|--
E|----------------------------------------------------|-------------------------------------------------|--

Stave 2:
t: W H Q QQ
E|-----|------------
B|-----|------------
G|--2--|--4--6--9---
D|--4--|--6--7--11--
A|--5--|--7--9--12--
E|-----|------------

Stave 3:
t: S S S S S S S S S SS S SS S SS S SS S S S S S S S S S S S S S SS S SS S S S S S S S S S SS S SS S SS S SS
E|-----9-----9-----9-----9------------------------------|-----9-----9-----9-----9----------------------------|-----9-----9-----9-----9------------------------------
B|-----------------------------12-----12-----10-----10--|-----------------------------9-----9-----10-----10--|-----------------------------12-----12-----10-----10--
G|--9-----9-----9-----9-----9------9------9------9------|--9-----9-----9-----9-----9-----9-----9------9------|--9-----9-----9-----9-----9------9------9------9------
D|------------------------------------------------------|----------------------------------------------------|------------------------------------------------------
A|------------------------------------------------------|----------------------------------------------------|------------------------------------------------------
E|------------------------------------------------------|----------------------------------------------------|------------------------------------------------------

http://www.guitartabcreator.com
Guitar Tab Creator is intended to store guitar tab created through the tool. It currently does not support in-line text editing. Any text you place in here will be lost. If you need to comment on your tab, please use the "Tab Notes" section located below.