Sound will begin in 5 seconds

Blackbird by japo

Chords
01234567891011121314151617181920212223
E
B
G
D
A
E
B
0 1 2 3 4 5 6 7 8 9 10 11 12 13 14 15 16 17 18 19 20 21 22 23
Song Science #1: How Pros Use 6 Chords to Write Hit Songs
(/) Slide Up  (\) Slide Down  (h) Hammer On  (p) Pull Off  (b) Bend (r) Release (v) Vibrato

Stave 1:

E|-0-----7-7---7--------------------------------------------------------------------------------0-
A|-2-3-5-5---------7-10-9-12-10---10---10-10---10---10-9-10-7---7---6---6---0---0---4---4---3-5-2-
D|-0-----5---5---5-----------9------------9--------------9------------------5-------5-------5-5-0-
G|-0-2-4-5---------5-9--7-11-9--9----9----8--8----8----7-7--5-5---5-5-5---5-4-4---4-3-3---3-2-2-0-

Stave 2:

E|-0-3-0-3h10-10---10---7p5p3-5-5-5-8-10-7--7--5--5--7--3--3--3---3-5-7p5------5-6-5-3-5-0-------3-
A|-2-2-3-5----10--------3-----7-5-5-5-5--10-10-10-10-10-7--6--5-------5-5-10-5-3---3-2-7-0-4-3h5-2-
D|-0-0-2------9--9----9------------------14-13-12-12-12-10-10-9p7-----6-6------5---5-5-5-5-5-5-----
G|---0-0-------------------------------------------------------------------------------5-4-3-2-----

Stave 3:

E|-
A|-
D|-
G|-

http://www.guitartabcreator.com
Guitar Tab Creator is intended to store guitar tab created through the tool. It currently does not support in-line text editing. Any text you place in here will be lost. If you need to comment on your tab, please use the "Tab Notes" section located below.