Y SIN EMBARGO

Chords

01234567891011121314151617181920212223
E
B
G
D
A
E
B
0 1 2 3 4 5 6 7 8 9 10 11 12 13 14 15 16 17 18 19 20 21 22 23
(/) Slide Up  (\) Slide Down  (h) Hammer On  (p) Pull Off  (b) Bend (r) Release (v) Vibrato

Stave 1:

E|---------------5/7-----5--5----------------------------------------------------------
B|--------------------8--------7--------------------5--5--5-----5p7--8--7--5-----------
G|------7--9----------------------7--4--7--4--4--7-----------7----------------7--4--7--
D|--9---7--9---------------------------------------------------------------------------
A|--10---------------------------------------------------------------------------------
E|------------0------------------------------------------------------------------------

Stave 2:

E|----------12b13b12--10-----------------------------
B|--12--------------------13--12--10--12--12p13--12--
G|------12-------------------------------------------
D|---------------------------------------------------
A|---------------------------------------------------
E|---------------------------------------------------

							http://www.guitartabcreator.com
Tab Notes

genre
Instruments
{"title":"Y SIN EMBARGO","strings":[[[".",".",".",".",5,"/",7,".",5,5,".",".",".",".",".",".",".",".",".",".",".",".",".",".",".",".",".",".",".","."],[".",".",".",".",".",".",".",8,".",".",7,".",".",".",".",".",".",5,5,5,".",5,"p",7,8,7,5,".",".","."],[".",7,9,".",".",".",".",".",".",".",".",7,4,7,4,4,7,".",".",".",7,".",".",".",".",".",".",7,4,7],[9,7,9,".",".",".",".",".",".",".",".",".",".",".",".",".",".",".",".",".",".",".",".",".",".",".",".",".",".","."],[10,".",".",".",".",".",".",".",".",".",".",".",".",".",".",".",".",".",".",".",".",".",".",".",".",".",".",".",".","."],[".",".",".",0,".",".",".",".",".",".",".",".",".",".",".",".",".",".",".",".",".",".",".",".",".",".",".",".",".","."]],[[".",".",12,"b",13,"b",12,10,".",".",".",".",".",".",".","."],[12,".",".",".",".",".",".",".",13,12,10,12,12,"p",13,12],[".",12,".",".",".",".",".",".",".",".",".",".",".",".",".","."],[".",".",".",".",".",".",".",".",".",".",".",".",".",".",".","."],[".",".",".",".",".",".",".",".",".",".",".",".",".",".",".","."],[".",".",".",".",".",".",".",".",".",".",".",".",".",".",".","."]]],"numberofstrings":6,"notes":["E","B","G","D","A","E","B"],"capo":0,"stringnotes":["E4","B3","G3","D3","A2","E2"],"comments":["Stave 1:","Stave 2:"],"timing":[["W","W","W","W","W",null,"W","W","W","W","W","W","W","W","W","W","W","W","W","W","W","W",null,"W","W","W","W","W","W","W"],["W","W","W","W","W",null,"W","W","W","W","W","W","W","W","W","W"]],"timingvisible":false,"tabcounter":16,"stave":1,"totalstaves":2,"instrument":"6guitar","selectedtuning":"6_standard","version":"13"}

Member for

7 months 3 weeks
Submitted by facundodifalco on Thu, 2020-04-09 12:18