Feliz (solo)

Chords

01234567891011121314151617181920212223
E
B
G
D
A
E
B
0 1 2 3 4 5 6 7 8 9 10 11 12 13 14 15 16 17 18 19 20 21 22 23
(/) Slide Up  (\) Slide Down  (h) Hammer On  (p) Pull Off  (b) Bend (r) Release (v) Vibrato

Stave 1:

E|--------------------|-----------------------------------|-----
B|--------------------|--3--2-----------------------------|-----
G|-----2--4--5--6-----|--------2--4-----------------------|-----
D|--4-----------------|--------------4--2--4--------------|-----
A|--------------------|-----------------------4--2--2-----|-----
E|--------------------|-----------------------------------|-----

Stave 2:

E|---------------------------------4-----|--
B|---------------------------------2-----|--
G|---------------------------------2-----|--
D|--2--2--2--4---------------------------|--
A|--------------2--4--0h2h0--------------|--
E|---------------------------2--2--------|--

Stave 3:

E|--7--4-----4--------------------------|-------------------------------|--
B|--------5-----5-----5-----------------|-------------------------------|--
G|-----------------6-----6--4--6--4-----|--2--------2--4\6--2--4--2-----|--
D|--------------------------------------|-----4--4----------------------|--
A|--------------------------------------|-------------------------------|--
E|--------------------------------------|-------------------------------|--

Stave 4:

E|-----------------------------------------------------------------|--
B|-----------------------------------------------------------------|--
G|-----4--5--6--7--5--6--5--4--3--2-----2--1-----------------------|--
D|--7--------------------------------4--------4--2--------2--4-----|--
A|-----------------------------------------------------4-----------|--
E|-----------------------------------------------------------------|--

Stave 5:

E|-----------------------------|--
B|-----------------------------|--
G|---------------------2--4\6--|--
D|-----------2--4h2h4----------|--
A|--2h4h2h4--------------------|--
E|-----------------------------|--

Stave 6:

E|--9---------12--14--9--12----------------------------------------|--
B|--------12-----------------9--10---------------------------------|--
G|----------------------------------9--11--------------------------|--
D|-----------------------------------------9--11-------------------|--
A|------------------------------------------------9--12------------|--
E|-------------------------------------------------------12--9-----|--

Stave 7:

E|-------------------------------------------------|--
B|-------------------------------------------------|--
G|-----------------9-------------------------------|--
D|------9--10--11-----9h10h9------9----------------|--
A|--12------------------------12-----12--9--12-----|--
E|-------------------------------------------------|--

Stave 8:

E|------------------17-------------|-----------------------------|--
B|--14--14--15--17------14---------|--15b15b15b15b---------------|--
G|--------------------------14-----|--------------14------14-----|--
D|---------------------------------|------------------16---------|--
A|---------------------------------|-----------------------------|--
E|---------------------------------|-----------------------------|--

Stave 9:

E|--14--14------------------------------------------------|--
B|-------------17--14-------------------------------------|--
G|---------------------16--14--16--14-----------------14--|--
D|----------------------------------------16--14--16------|--
A|--------------------------------------------------------|--
E|--------------------------------------------------------|--

Stave 10:

E|--16--14-----------------------------|---------------------------------|--
B|----------17--14---------------------|---------------------------------|--
G|------------------16--14-------------|---------------------------------|--
D|--------------------------16--14-----|--16--14-------------------------|--
A|-------------------------------------|----------16--15--14-------------|--
E|-------------------------------------|----------------------17--14-----|--

Stave 11:

E|-----------------------------------------------------------------------------
B|--------------------------------------------------------------------------16b
G|--14--16--18--18--17--16--14------14--16--14--16--14--16--14-----------------
D|------------------------------14------------------------------16--14--16-----
A|-----------------------------------------------------------------------------
E|-----------------------------------------------------------------------------

Stave 12:

E|--------------------------------|--17b14-----------------------------
B|--16--14--16--14----------------|---------17--14---------------------
G|------------------14------------|-----------------16--14-------------
D|----------------------16--------|-------------------------16--14-----
A|--------------------------------|------------------------------------
E|--------------------------------|------------------------------------

							http://www.guitartabcreator.com
Instruments
{"strings":[[[".",".",".",".",".",".","|",".",".",".",".",".",".",".",".",".",".",".","|","."],[".",".",".",".",".",".","|",3,2,".",".",".",".",".",".",".",".",".","|","."],[".",2,4,5,6,".","|",".",".",2,4,".",".",".",".",".",".",".","|","."],[4,".",".",".",".",".","|",".",".",".",".",4,2,4,".",".",".",".","|","."],[".",".",".",".",".",".","|",".",".",".",".",".",".",".",4,2,2,".","|","."],[".",".",".",".",".",".","|",".",".",".",".",".",".",".",".",".",".",".","|","."]],[[".",".",".",".",".",".",".",".",".",".",".",".",".",4,".","|"],[".",".",".",".",".",".",".",".",".",".",".",".",".",2,".","|"],[".",".",".",".",".",".",".",".",".",".",".",".",".",2,".","|"],[2,2,2,4,".",".",".",".",".",".",".",".",".",".",".","|"],[".",".",".",".",2,4,0,"h",2,"h",0,".",".",".",".","|"],[".",".",".",".",".",".",".",".",".",".",".",2,2,".",".","|"]],[[7,4,".",4,".",".",".",".",".",".",".",".","|",".",".",".",".",".",".",".",".",".",".",".","|"],[".",".",5,".",5,".",5,".",".",".",".",".","|",".",".",".",".",".",".",".",".",".",".",".","|"],[".",".",".",".",".",6,".",6,4,6,4,".","|",2,".",".",2,4,"\\",6,2,4,2,".","|"],[".",".",".",".",".",".",".",".",".",".",".",".","|",".",4,4,".",".",".",".",".",".",".",".","|"],[".",".",".",".",".",".",".",".",".",".",".",".","|",".",".",".",".",".",".",".",".",".",".",".","|"],[".",".",".",".",".",".",".",".",".",".",".",".","|",".",".",".",".",".",".",".",".",".",".",".","|"]],[[".",".",".",".",".",".",".",".",".",".",".",".",".",".",".",".",".",".",".",".",".","|"],[".",".",".",".",".",".",".",".",".",".",".",".",".",".",".",".",".",".",".",".",".","|"],[".",4,5,6,7,5,6,5,4,3,2,".",2,1,".",".",".",".",".",".",".","|"],[7,".",".",".",".",".",".",".",".",".",".",4,".",".",4,2,".",".",2,4,".","|"],[".",".",".",".",".",".",".",".",".",".",".",".",".",".",".",".",".",4,".",".",".","|"],[".",".",".",".",".",".",".",".",".",".",".",".",".",".",".",".",".",".",".",".",".","|"]],[[".",".",".",".",".",".",".",".",".",".",".",".",".",".",".",".",".","|"],[".",".",".",".",".",".",".",".",".",".",".",".",".",".",".",".",".","|"],[".",".",".",".",".",".",".",".",".",".",".",".",".",2,4,"\\",6,"|"],[".",".",".",".",".",".",".",2,4,"h",2,"h",4,".",".",".",".","|"],[2,"h",4,"h",2,"h",4,".",".",".",".",".",".",".",".",".",".","|"],[".",".",".",".",".",".",".",".",".",".",".",".",".",".",".",".",".","|"]],[[9,".",".",12,14,9,12,".",".",".",".",".",".",".",".",".",".",".","|"],[".",".",12,".",".",".",".",9,10,".",".",".",".",".",".",".",".",".","|"],[".",".",".",".",".",".",".",".",".",9,11,".",".",".",".",".",".",".","|"],[".",".",".",".",".",".",".",".",".",".",".",9,11,".",".",".",".",".","|"],[".",".",".",".",".",".",".",".",".",".",".",".",".",9,12,".",".",".","|"],[".",".",".",".",".",".",".",".",".",".",".",".",".",".",".",12,9,".","|"]],[[".",".",".",".",".",".",".",".",".",".",".",".",".",".",".",".","|"],[".",".",".",".",".",".",".",".",".",".",".",".",".",".",".",".","|"],[".",".",".",".",9,".",".",".",".",".",".",".",".",".",".",".","|"],[".",9,10,11,".",9,"h",10,"h",9,".",9,".",".",".",".","|"],[12,".",".",".",".",".",".",".",".",".",12,".",12,9,12,".","|"],[".",".",".",".",".",".",".",".",".",".",".",".",".",".",".",".","|"]],[[".",".",".",".",17,".",".",".","|",".",".",".",".",".",".",".",".",".",".",".",".","|"],[14,14,15,17,".",14,".",".","|",15,"b",15,"b",15,"b",15,"b",".",".",".",".","|"],[".",".",".",".",".",".",14,".","|",".",".",".",".",".",".",".",".",14,".",14,".","|"],[".",".",".",".",".",".",".",".","|",".",".",".",".",".",".",".",".",".",16,".",".","|"],[".",".",".",".",".",".",".",".","|",".",".",".",".",".",".",".",".",".",".",".",".","|"],[".",".",".",".",".",".",".",".","|",".",".",".",".",".",".",".",".",".",".",".",".","|"]],[[14,14,".",".",".",".",".",".",".",".",".",".",".",".","|"],[".",".",".",17,14,".",".",".",".",".",".",".",".",".","|"],[".",".",".",".",".",16,14,16,14,".",".",".",".",14,"|"],[".",".",".",".",".",".",".",".",".",".",16,14,16,".","|"],[".",".",".",".",".",".",".",".",".",".",".",".",".",".","|"],[".",".",".",".",".",".",".",".",".",".",".",".",".",".","|"]],[[16,14,".",".",".",".",".",".",".","|",".",".",".",".",".",".",".",".","|"],[".",".",17,14,".",".",".",".",".","|",".",".",".",".",".",".",".",".","|"],[".",".",".",".",16,14,".",".",".","|",".",".",".",".",".",".",".",".","|"],[".",".",".",".",".",".",16,14,".","|",16,14,".",".",".",".",".",".","|"],[".",".",".",".",".",".",".",".",".","|",".",".",16,15,14,".",".",".","|"],[".",".",".",".",".",".",".",".",".","|",".",".",".",".",".",17,14,".","|"]],[[".",".",".",".",".",".",".",".",".",".",".",".",".",".",".",".",".",".",".","."],[".",".",".",".",".",".",".",".",".",".",".",".",".",".",".",".",".",".",16,"b"],[14,16,18,18,17,16,14,".",14,16,14,16,14,16,14,".",".",".",".","."],[".",".",".",".",".",".",".",14,".",".",".",".",".",".",".",16,14,16,".","."],[".",".",".",".",".",".",".",".",".",".",".",".",".",".",".",".",".",".",".","."],[".",".",".",".",".",".",".",".",".",".",".",".",".",".",".",".",".",".",".","."]],[[".",".",".",".",".",".",".",".","|",17,"b",14,".",".",".",".",".",".","."],[16,14,16,14,".",".",".",".","|",".",".",".",17,14,".",".",".",".","."],[".",".",".",".",14,".",".",".","|",".",".",".",".",".",16,14,".",".","."],[".",".",".",".",".",16,".",".","|",".",".",".",".",".",".",".",16,14,"."],[".",".",".",".",".",".",".",".","|",".",".",".",".",".",".",".",".",".","."],[".",".",".",".",".",".",".",".","|",".",".",".",".",".",".",".",".",".","."]]],"numberofstrings":6,"notes":["E","B","G","D","A","E","B"],"capo":0,"stringnotes":["E4","B3","G3","D3","A2","E2"],"comments":["Stave 1:","Stave 2:","Stave 3:","Stave 4:","Stave 5:","Stave 6:","Stave 7:","Stave 8:","Stave 9:","Stave 10:","Stave 11:","Stave 12:"],"timing":[[null,"W","W","W","W","W",null,null,"W","W","W","W","W","W","W","W","W","W"],[null,"W","W","W","W","W","W","W","W","W","W","W","W","W","W"],[null,"W","W","W","W","W","W","W","W","W","W","W",null,null,"W","W","W","W","W",null,"W","W","W","W"],[null,"W","W","W","W","W","W","W","W","W","W","W","W","W","W","W","W",null,"W","W","W"],[null,"W",null,"W",null,"W",null,"W","W","W",null,"W",null,"W","W","W",null,"W"],[null,"W",null,"W","W","W","W","W","W","W","W","W","W","W","W","W","W","W"],[null,"W","W","W","W","W","W",null,"W",null,"W","W","W","W","W","W"],[null,"W","W","W","W","W","W","W",null,null,"W",null,"W",null,"W",null,"W",null,"W","W","W"],[null,"W","W",null,"W","W","W","W","W","W",null,"W","W","W","W"],[null,"W","W","W","W","W","W","W","W",null,null,"W","W","W","W","W","W","W"],[null,"W","W","W","W","W","W","W","W","W","W","W","W","W","W","W","W","W","W","W"],[null,"W","W","W","W","W","W",null,null,null,"W",null,"W","W","W","W","W","W","W"]],"timingvisible":false,"tabcounter":19,"stave":11,"totalstaves":12,"instrument":"6guitar","selectedtuning":"6_standard","version":"13"}

Member for

1 month 1 week
Submitted by facugm on Fri, 2020-10-30 19:00