Easy lover (solo)

Chords

01234567891011121314151617181920212223
E
B
G
D
A
E
B
0 1 2 3 4 5 6 7 8 9 10 11 12 13 14 15 16 17 18 19 20 21 22 23
(/) Slide Up  (\) Slide Down  (h) Hammer On  (p) Pull Off  (b) Bend (r) Release (v) Vibrato

Stave 1:

E|--13--13--13--13--13--13------------------------------------------11------8-------------|--8---8---8-------------------------------8---8---8---11-----------------------------------|--
B|--13--13--13--13--13--13--------9--11--------9--11--11--9------9------11---------11-----|--9---9---9-------------------------------9---9---9---9---------9--11--11b13--9------9-----|--
G|--------------------------8\10---------8\10----------------10----------------10---------|--10--10--10-------1--3--3b5--1-----1-----10--10--10--10--8\10-------------------10--------|--
D|----------------------------------------------------------------------------------------|--------------1\3----------------3-----3---------------------------------------------------|--
A|----------------------------------------------------------------------------------------|-------------------------------------------------------------------------------------------|--
E|----------------------------------------------------------------------------------------|-------------------------------------------------------------------------------------------|--

Stave 2:

E|--11b13--11p9------9------9----------------------------------------------------------------|--
B|---------------11-----11-----11--9------11--9--10--11--10--9-------------------------------|--
G|------------------------------------10------------------------10--8------------------------|--
D|---------------------------------------------------------------------10--8--10--11--10-----|--
A|-------------------------------------------------------------------------------------------|--
E|-------------------------------------------------------------------------------------------|--

Stave 3:

E|----------------------------------------------------------------------------------|--
B|------------------------------8--9--8--11--9--8--13-----11--9-----14--13--11--16--|--
G|--------------------8--9--10------------------------------------------------------|--
D|-------------8--10----------------------------------------------------------------|--
A|--8--10--11-----------------------------------------------------------------------|--
E|----------------------------------------------------------------------------------|--

Stave 4:

E|----------13------13--13--------------------------------|-------------16-------------|-----16--18--18b20b20b20--20--19--18-----|--
B|--13--16------16----------16--13------13----------------|---------16------16--18-----16\18--------------------------------------|--
G|----------------------------------15-------------13-----|--15\17---------------------|-----------------------------------------|--
D|------------------------------------------13\15---------|----------------------------|-----------------------------------------|--
A|--------------------------------------------------------|----------------------------|-----------------------------------------|--
E|--------------------------------------------------------|----------------------------|-----------------------------------------|--

							http://www.guitartabcreator.com
Instruments
{"strings":[[[13,13,13,13,13,13,".",".",".",".",".",".",".",".",".",".",".",".",".",".",11,".",8,".",".",".","|",8,8,8,".",".",".",".",".",".",".",".",".",".",".",".",8,8,8,11,".",".",".",".",".",".",".",".",".",".",".",".","|"],[13,13,13,13,13,13,".",".",".",9,11,".",".",".",9,11,11,9,".",9,".",11,".",".",11,".","|",9,9,9,".",".",".",".",".",".",".",".",".",".",".",".",9,9,9,9,".",".",".",9,11,11,"b",13,9,".",9,".","|"],[".",".",".",".",".",".",8,"\\",10,".",".",8,"\\",10,".",".",".",".",10,".",".",".",".",10,".",".","|",10,10,10,".",".",".",1,3,3,"b",5,1,".",1,".",10,10,10,10,8,"\\",10,".",".",".",".",".",".",10,".",".","|"],[".",".",".",".",".",".",".",".",".",".",".",".",".",".",".",".",".",".",".",".",".",".",".",".",".",".","|",".",".",".",1,"\\",3,".",".",".",".",".",".",3,".",3,".",".",".",".",".",".",".",".",".",".",".",".",".",".",".",".","|"],[".",".",".",".",".",".",".",".",".",".",".",".",".",".",".",".",".",".",".",".",".",".",".",".",".",".","|",".",".",".",".",".",".",".",".",".",".",".",".",".",".",".",".",".",".",".",".",".",".",".",".",".",".",".",".",".",".",".","|"],[".",".",".",".",".",".",".",".",".",".",".",".",".",".",".",".",".",".",".",".",".",".",".",".",".",".","|",".",".",".",".",".",".",".",".",".",".",".",".",".",".",".",".",".",".",".",".",".",".",".",".",".",".",".",".",".",".",".","|"]],[[11,"b",13,11,"p",9,".",9,".",9,".",".",".",".",".",".",".",".",".",".",".",".",".",".",".",".",".","|"],[".",".",".",".",".",".",11,".",11,".",11,9,".",11,9,10,11,10,9,".",".",".",".",".",".",".",".","|"],[".",".",".",".",".",".",".",".",".",".",".",".",10,".",".",".",".",".",".",10,8,".",".",".",".",".",".","|"],[".",".",".",".",".",".",".",".",".",".",".",".",".",".",".",".",".",".",".",".",".",10,8,10,11,10,".","|"],[".",".",".",".",".",".",".",".",".",".",".",".",".",".",".",".",".",".",".",".",".",".",".",".",".",".",".","|"],[".",".",".",".",".",".",".",".",".",".",".",".",".",".",".",".",".",".",".",".",".",".",".",".",".",".",".","|"]],[[".",".",".",".",".",".",".",".",".",".",".",".",".",".",".",".",".",".",".",".",".",".",".","|"],[".",".",".",".",".",".",".",".",8,9,8,11,9,8,13,".",11,9,".",14,13,11,16,"|"],[".",".",".",".",".",8,9,10,".",".",".",".",".",".",".",".",".",".",".",".",".",".",".","|"],[".",".",".",8,10,".",".",".",".",".",".",".",".",".",".",".",".",".",".",".",".",".",".","|"],[8,10,11,".",".",".",".",".",".",".",".",".",".",".",".",".",".",".",".",".",".",".",".","|"],[".",".",".",".",".",".",".",".",".",".",".",".",".",".",".",".",".",".",".",".",".",".",".","|"]],[[".",".",13,".",13,13,".",".",".",".",".",".",".",".",".","|",".",".",".",".",16,".",".",".","|",".",".",16,18,18,"b",20,"b",20,"b",20,20,19,18,".","|"],[13,16,".",16,".",".",16,13,".",13,".",".",".",".",".","|",".",".",".",16,".",16,18,".",16,"\\",18,".",".",".",".",".",".",".",".",".",".",".",".",".","|"],[".",".",".",".",".",".",".",".",15,".",".",".",".",13,".","|",15,"\\",17,".",".",".",".",".","|",".",".",".",".",".",".",".",".",".",".",".",".",".",".",".","|"],[".",".",".",".",".",".",".",".",".",".",13,"\\",15,".",".","|",".",".",".",".",".",".",".",".","|",".",".",".",".",".",".",".",".",".",".",".",".",".",".",".","|"],[".",".",".",".",".",".",".",".",".",".",".",".",".",".",".","|",".",".",".",".",".",".",".",".","|",".",".",".",".",".",".",".",".",".",".",".",".",".",".",".","|"],[".",".",".",".",".",".",".",".",".",".",".",".",".",".",".","|",".",".",".",".",".",".",".",".","|",".",".",".",".",".",".",".",".",".",".",".",".",".",".",".","|"]]],"numberofstrings":6,"notes":["E","B","G","D","A","E","B"],"capo":0,"stringnotes":["E4","B3","G3","D3","A2","E2"],"comments":["Stave 1:","Stave 2:","Stave 3:","Stave 4:"],"timing":[[null,"W","W","W","W","W","W","W",null,"W","W","W","W",null,"W","W","W","W","W","W","W","W","W","W","W","W",null,null,"W","W","W","W",null,"W","W","W","W",null,"W","W","W","W",null,"W","W","W","W","W",null,"W","W","W","W",null,"W","W","W","W"],[null,"W",null,"W","W","W","W","W","W","W","W","W","W","W","W","W","W","W","W","W","W","W","W","W","W","W","W"],[null,"W","W","W","W","W","W","W","W","W","W","W","W","W","W","W",null,"W","W",null,"W","W","W","W"],[null,"W","W","W","W","W","W","W","W","W","W","W",null,"W","W",null,null,"W",null,"W","W","W","W","W",null,"W",null,"W","W","W","W",null,"W",null,"W",null,"W","W","W","W"]],"timingvisible":false,"tabcounter":41,"stave":3,"totalstaves":4,"instrument":"6guitar","selectedtuning":"6_standard","version":"13"}

Member for

2 months 3 weeks
Submitted by facugm on Sat, 2020-10-24 08:23