Solo OUTRO

Chords

01234567891011121314151617181920212223
E
B
G
D
A
E
B
0 1 2 3 4 5 6 7 8 9 10 11 12 13 14 15 16 17 18 19 20 21 22 23
(/) Slide Up  (\) Slide Down  (h) Hammer On  (p) Pull Off  (b) Bend (r) Release (v) Vibrato

Stave 1:

Eb|-------------------------------
Bb|----------------10--12--12b12--
Gb|---------9--11-----------------
Db|--9--11------------------------
Ab|-------------------------------
Eb|-------------------------------

Stave 2:

Eb|--12--9----------------------------------
Bb|---------12--10--------------------------
Gb|-----------------11--9--11b9-------------
Db|------------------------------11--9--11--
Ab|-----------------------------------------
Eb|-----------------------------------------

Stave 3:

Eb|---------------------------------
Bb|---------------------------------
Gb|--------------------4--6--6/9\6--
Db|--------------4--7---------------
Ab|--------4--7---------------------
Eb|--5--7---------------------------

Stave 4:

Eb|--------------------------7--9/12--9--
Bb|----------------7/10--10--------------
Gb|--4--6--6/9--9------------------------
Db|--------------------------------------
Ab|--------------------------------------
Eb|--------------------------------------

Stave 5:

Eb|--12--10--------------12--10--------------12--10--------------
Bb|----------12--10--12----------12--10--12----------12--10--12--
Gb|--------------------------------------------------------------
Db|--------------------------------------------------------------
Ab|--------------------------------------------------------------
Eb|--------------------------------------------------------------

Stave 6:

Eb|-----------------------------------------------
Bb|--7--5-----------7--5-----------7--5-----------
Gb|--------6--4--6--------6--4--6--------6--4--6--
Db|-----------------------------------------------
Ab|-----------------------------------------------
Eb|-----------------------------------------------

Stave 7:

Eb|--2/5--2-----------2--
Bb|----------5--2--5-----
Gb|----------------------
Db|----------------------
Ab|----------------------
Eb|----------------------

Stave 8:

Eb|--12--9--7--9--7--5--7--5--2--5--2----------------------------------
Bb|------------------------------------5/7--5--------------------------
Gb|--------------------------------------------6--4--2--4--2-----------
Db|-----------------------------------------------------------4--2--4--
Ab|--------------------------------------------------------------------
Eb|--------------------------------------------------------------------

							http://www.guitartabcreator.com
Instruments
{"strings":[[[".",".",".",".",".",".",".",".","."],[".",".",".",".",10,12,12,"b",12],[".",".",9,11,".",".",".",".","."],[9,11,".",".",".",".",".",".","."],[".",".",".",".",".",".",".",".","."],[".",".",".",".",".",".",".",".","."]],[[12,9,".",".",".",".",".",".",".",".",".","."],[".",".",12,10,".",".",".",".",".",".",".","."],[".",".",".",".",11,9,11,"b",9,".",".","."],[".",".",".",".",".",".",".",".",".",11,9,11],[".",".",".",".",".",".",".",".",".",".",".","."],[".",".",".",".",".",".",".",".",".",".",".","."]],[[".",".",".",".",".",".",".",".",".",".",".",".","."],[".",".",".",".",".",".",".",".",".",".",".",".","."],[".",".",".",".",".",".",4,6,6,"/",9,"\\",6],[".",".",".",".",4,7,".",".",".",".",".",".","."],[".",".",4,7,".",".",".",".",".",".",".",".","."],[5,7,".",".",".",".",".",".",".",".",".",".","."]],[[".",".",".",".",".",".",".",".",".",".",7,9,"/",12,9],[".",".",".",".",".",".",7,"/",10,10,".",".",".",".","."],[4,6,6,"/",9,9,".",".",".",".",".",".",".",".","."],[".",".",".",".",".",".",".",".",".",".",".",".",".",".","."],[".",".",".",".",".",".",".",".",".",".",".",".",".",".","."],[".",".",".",".",".",".",".",".",".",".",".",".",".",".","."]],[[12,10,".",".",".",12,10,".",".",".",12,10,".",".","."],[".",".",12,10,12,".",".",12,10,12,".",".",12,10,12],[".",".",".",".",".",".",".",".",".",".",".",".",".",".","."],[".",".",".",".",".",".",".",".",".",".",".",".",".",".","."],[".",".",".",".",".",".",".",".",".",".",".",".",".",".","."],[".",".",".",".",".",".",".",".",".",".",".",".",".",".","."]],[[".",".",".",".",".",".",".",".",".",".",".",".",".",".","."],[7,5,".",".",".",7,5,".",".",".",7,5,".",".","."],[".",".",6,4,6,".",".",6,4,6,".",".",6,4,6],[".",".",".",".",".",".",".",".",".",".",".",".",".",".","."],[".",".",".",".",".",".",".",".",".",".",".",".",".",".","."],[".",".",".",".",".",".",".",".",".",".",".",".",".",".","."]],[[2,"/",5,2,".",".",".",2],[".",".",".",".",5,2,5,"."],[".",".",".",".",".",".",".","."],[".",".",".",".",".",".",".","."],[".",".",".",".",".",".",".","."],[".",".",".",".",".",".",".","."]],[[12,9,7,9,7,5,7,5,2,5,2,".",".",".",".",".",".",".",".",".",".",".","."],[".",".",".",".",".",".",".",".",".",".",".",5,"/",7,5,".",".",".",".",".",".",".","."],[".",".",".",".",".",".",".",".",".",".",".",".",".",".",".",6,4,2,4,2,".",".","."],[".",".",".",".",".",".",".",".",".",".",".",".",".",".",".",".",".",".",".",".",4,2,4],[".",".",".",".",".",".",".",".",".",".",".",".",".",".",".",".",".",".",".",".",".",".","."],[".",".",".",".",".",".",".",".",".",".",".",".",".",".",".",".",".",".",".",".",".",".","."]]],"numberofstrings":6,"notes":["DsEb","AsBb","FsGb","CsDb","GsAb","DsEb"],"capo":0,"stringnotes":["Eb3","Bb2","Gb2","Db2","Ab1","Eb1"],"comments":["Stave 1:","Stave 2:","Stave 3:","Stave 4:","Stave 5:","Stave 6:","Stave 7:","Stave 8:"],"timing":[["W","W","W","W","W","W","W",null,"W","W","W","W","W","W","W","W",null,"W","W","W","W","W","W","W","W","W","W","W","W"],["W","W","W","W","W","W","W",null,"W","W","W","W"],["W","W","W","W","W","W","W","W","W",null,"W",null,"W"],["W","W","W","W","W","W","W",null,"W","W","W","W",null,"W","W"],["W","W","W","W","W","W","W","W","W","W","W","W","W","W","W"],["W","W","W","W","W","W","W","W","W","W","W","W","W","W","W"],["W",null,"W","W","W","W","W","W"],["W","W","W","W","W","W","W","W","W","W","W","W","W","W","W","W","W","W","W","W","W","W","W"]],"timingvisible":false,"tabcounter":23,"stave":7,"totalstaves":8,"instrument":"6guitar","selectedtuning":"Half Step Down","version":"13"}

Member for

1 month 2 weeks
Submitted by Fabio Rojas on Thu, 2020-05-28 02:16