Solo Intro

Chords

01234567891011121314151617181920212223
E
B
G
D
A
E
B
0 1 2 3 4 5 6 7 8 9 10 11 12 13 14 15 16 17 18 19 20 21 22 23
(/) Slide Up  (\) Slide Down  (h) Hammer On  (p) Pull Off  (b) Bend (r) Release (v) Vibrato

Stave 1:

E|------------------------------------------------------------------
B|--13--12--10--12--10--8--10--8--6--8--6--5--6--5--3--5--1/3--3/5--
G|------------------------------------------------------------------
D|------------------------------------------------------------------
A|------------------------------------------------------------------
E|------------------------------------------------------------------

Stave 2:

E|------------------------------------
B|-----------5--6--5--3--5--3\1--3/5--
G|--2--4--5---------------------------
D|------------------------------------
A|------------------------------------
E|------------------------------------

Stave 3:

E|-------------------
B|--8--6--5--3/5--5--
G|-------------------
D|-------------------
A|-------------------
E|-------------------

							http://www.guitartabcreator.com
Instruments
{"strings":[[[".",".",".",".",".",".",".",".",".",".",".",".",".",".",".",".",".",".",".",".",".","."],[13,12,10,12,10,8,10,8,6,8,6,5,6,5,3,5,1,"/",3,3,"/",5],[".",".",".",".",".",".",".",".",".",".",".",".",".",".",".",".",".",".",".",".",".","."],[".",".",".",".",".",".",".",".",".",".",".",".",".",".",".",".",".",".",".",".",".","."],[".",".",".",".",".",".",".",".",".",".",".",".",".",".",".",".",".",".",".",".",".","."],[".",".",".",".",".",".",".",".",".",".",".",".",".",".",".",".",".",".",".",".",".","."]],[[".",".",".",".",".",".",".",".",".",".",".",".",".","."],[".",".",".",5,6,5,3,5,3,"\\",1,3,"/",5],[2,4,5,".",".",".",".",".",".",".",".",".",".","."],[".",".",".",".",".",".",".",".",".",".",".",".",".","."],[".",".",".",".",".",".",".",".",".",".",".",".",".","."],[".",".",".",".",".",".",".",".",".",".",".",".",".","."]],[[".",".",".",".",".",".","."],[8,6,5,3,"/",5,5],[".",".",".",".",".",".","."],[".",".",".",".",".",".","."],[".",".",".",".",".",".","."],[".",".",".",".",".",".","."]]],"numberofstrings":6,"notes":["E","B","G","D","A","E","B"],"capo":0,"stringnotes":["E4","B3","G3","D3","A2","E2"],"comments":["Stave 1:","Stave 2:","Stave 3:"],"timing":[["W","W","W","W","W","W","W","W","W","W","W","W","W","W","W","W","W",null,"W","W",null,"W"],["W","W","W","W","W","W","W","W","W",null,"W","W","W","W"],["W","W","W","W",null,"W","W"]],"timingvisible":false,"tabcounter":7,"stave":2,"totalstaves":3,"instrument":"6guitar","selectedtuning":"6_standard","version":"13"}

Member for

1 month 3 weeks
Submitted by Fabio Rojas on Tue, 2020-06-30 19:01