SOLO

Chords

01234567891011121314151617181920212223
E
B
G
D
A
E
B
0 1 2 3 4 5 6 7 8 9 10 11 12 13 14 15 16 17 18 19 20 21 22 23
(/) Slide Up  (\) Slide Down  (h) Hammer On  (p) Pull Off  (b) Bend (r) Release (v) Vibrato

Stave 1:

E|-----------------------------
B|-----------------------------
G|--------5--7b5--4h5h4--------
D|--5--7-----------------5--7--
A|-----------------------------
E|-----------------------------

Stave 2:

E|-----------------------------
B|-----------------------------
G|--------5--7b5--4h5h4--------
D|--5--7-----------------5--7--
A|-----------------------------
E|-----------------------------

Stave 3:

E|-------------------------------------8--10/12--10--------8--10b12b10--
B|----------------8--5--8/10--8--8/10----------------8/10---------------
G|--------5--7/9--------------------------------------------------------
D|--5--7----------------------------------------------------------------
A|----------------------------------------------------------------------
E|----------------------------------------------------------------------

Stave 4:

E|--8h10--------------------
B|--------10--8h10----------
G|------------------9--7\2--
D|--------------------------
A|--------------------------
E|--------------------------

							http://www.guitartabcreator.com
Instruments
{"strings":[[[".",".",".",".",".",".",".",".",".",".",".",".","."],[".",".",".",".",".",".",".",".",".",".",".",".","."],[".",".",5,7,"b",5,4,"h",5,"h",4,".","."],[5,7,".",".",".",".",".",".",".",".",".",5,7],[".",".",".",".",".",".",".",".",".",".",".",".","."],[".",".",".",".",".",".",".",".",".",".",".",".","."]],[[".",".",".",".",".",".",".",".",".",".",".",".","."],[".",".",".",".",".",".",".",".",".",".",".",".","."],[".",".",5,7,"b",5,4,"h",5,"h",4,".","."],[5,7,".",".",".",".",".",".",".",".",".",5,7],[".",".",".",".",".",".",".",".",".",".",".",".","."],[".",".",".",".",".",".",".",".",".",".",".",".","."]],[[".",".",".",".",".",".",".",".",".",".",".",".",".",".",".",8,10,"/",12,10,".",".",".",8,10,"b",12,"b",10],[".",".",".",".",".",".",8,5,8,"/",10,8,8,"/",10,".",".",".",".",".",8,"/",10,".",".",".",".",".","."],[".",".",5,7,"/",9,".",".",".",".",".",".",".",".",".",".",".",".",".",".",".",".",".",".",".",".",".",".","."],[5,7,".",".",".",".",".",".",".",".",".",".",".",".",".",".",".",".",".",".",".",".",".",".",".",".",".",".","."],[".",".",".",".",".",".",".",".",".",".",".",".",".",".",".",".",".",".",".",".",".",".",".",".",".",".",".",".","."],[".",".",".",".",".",".",".",".",".",".",".",".",".",".",".",".",".",".",".",".",".",".",".",".",".",".",".",".","."]],[[8,"h",10,".",".",".",".",".",".",".","."],[".",".",".",10,8,"h",10,".",".",".","."],[".",".",".",".",".",".",".",9,7,"\\",2],[".",".",".",".",".",".",".",".",".",".","."],[".",".",".",".",".",".",".",".",".",".","."],[".",".",".",".",".",".",".",".",".",".","."]]],"numberofstrings":6,"notes":["E","B","G","D","A","E","B"],"capo":0,"stringnotes":["E4","B3","G3","D3","A2","E2"],"comments":["Stave 1:","Stave 2:","Stave 3:","Stave 4:"],"timing":[[null,null,null,null,null,null,null,null,null,null,null,null,null],[null,null,null,null,null,null,null,null,null,null,null,null,null],[null,null,null,null,null,null,null,null,null,null,null,null,null,null,null,null,null,null,null,null,null,null,null,null,null,null,null,null,null],[null,null,null,null,null,null,null,null,null,null,null]],"timingvisible":false,"tabcounter":11,"stave":3,"totalstaves":4,"instrument":"6guitar","selectedtuning":"6_standard","version":"13"}

Member for

1 week 5 days
Submitted by Fabio Rojas on Thu, 2020-05-21 09:58