Super Mario Hammer Brothers Theme - Tabbed by EzRiffs

01234567891011121314151617181920212223
E
B
G
D
A
E
B
0 1 2 3 4 5 6 7 8 9 10 11 12 13 14 15 16 17 18 19 20 21 22 23
(/) Slide Up  (\) Slide Down  (h) Hammer On  (p) Pull Off  (b) Bend (r) Release (v) Vibrato

Stave 1:

A|-----------------------------------------------6--7--6--7--5--3--0--3-----3--6p5p3-----0--3--------|--
E|--0--3--5--6---------------------------------------------------------------------------------------|--
C|--0--3--5--6-----0--0--3--3--5--5--6--6------------------------------------------------------------|--
G|---------------------------------------------------------------------------------------------------|--

Stave 2:

A|-----------------------------------------------3--5--3--6--6--5--6--5--3--0--3-----10--10--10--10--10--10--10-----------|--
E|--3--3--5--6--7--3-----0--3--1--1--0--1--------------------------------------------7---7---7---8---8---9---9------------|--
C|------------------------------------------------------------------------------------------------------------------------|--
G|------------------------------------------------------------------------------------------------------------------------|--

							http://www.guitartabcreator.com
Chords

Instruments
{"strings":[[[".","_","_","_","_","_",".",".",".",".",".",".",".","_","_",6,7,6,7,5,3,0,3,"_",3,6,"p",5,"p",3,"_",0,3,"_","_","|"],[0,3,5,6,"_","_",".",".",".",".",".",".",".","_","_",".",".",".",".",".",".",".",".","_",".",".",".",".",".",".","_",".",".","_","_","|"],[0,3,5,6,"_",0,0,3,3,5,5,6,6,"_","_",".",".",".",".",".",".",".",".","_",".",".",".",".",".",".","_",".",".","_","_","|"],[".","_","_","_","_","_",".",".",".",".",".",".",".","_","_",".",".",".",".",".",".",".",".","_",".",".",".",".",".",".","_",".",".","_","_","|"]],[[".",".",".",".",".",".","_",".",".",".",".",".",".","_","_",3,5,3,6,6,5,6,5,3,0,3,"_",10,10,10,10,10,10,10,"_","_","_","|"],[3,3,5,6,7,3,"_",0,3,1,1,0,1,"_","_",".",".",".",".",".",".",".",".",".",".",".","_",7,7,7,8,8,9,9,"_","_","_","|"],[".",".",".",".",".",".","_",".",".",".",".",".",".","_","_",".",".",".",".",".",".",".",".",".",".",".","_","_","_","_","_","_","_","_","_","_","_","|"],[".",".",".",".",".",".","_",".",".",".",".",".",".","_","_",".",".",".",".",".",".",".",".",".",".",".","_","_","_","_","_","_","_","_","_","_","_","|"]]],"numberofstrings":4,"notes":["A","E","C","G"],"capo":0,"stringnotes":["A4","E4","C1","G3"],"comments":["Stave 1:","Stave 2:"],"timing":[["W","W","W","W","W","W","W","W","W","W","W","W","W","W","W","W","W","W","W","W","W","W","W","W","W","W",null,"W",null,"W","W","W","W","W","W"],["W","W","W","W","W","W","W","W","W","W","W","W","W","W","W","W","W","W","W","W","W","W","W","W","W","W","W","W","W","W","W","W","W","W","W","W","W"]],"timingvisible":false,"tabcounter":36,"stave":0,"totalstaves":2,"instrument":"ukulele","selectedtuning":"ukulele","version":"13"}
Submitted by EzRiffs on Wed, 2022-08-24 17:48