My Three Sons theme for Ukulele - Tabbed by EzRiffs

01234567891011121314151617181920212223
E
B
G
D
A
E
B
0 1 2 3 4 5 6 7 8 9 10 11 12 13 14 15 16 17 18 19 20 21 22 23
(/) Slide Up  (\) Slide Down  (h) Hammer On  (p) Pull Off  (b) Bend (r) Release (v) Vibrato

Beginning mess lol

A|--7--------6--------5--------4-----9-----------------|--
E|-----6--------5--------4-----3-----8-----------------|--
C|--------5--------4-----------2-----7-----------------|--
G|-----------------------------------------------------|--

Background rhythm in 6

A|--2--2--2--2--2--2--3--3--3--3--3--3--2--2--2--2--2--2--3-----------|--
E|--3--3--3--3--3--3--3--3--3--3--3--3--3--3--3--3--3--3--3-----------|--
C|--2--2--2--2--2--2--4--4--4--4--4--4--2--2--2--2--2--2--4-----------|--
G|--------------------------------------------------------------------|--

melody

A|-----0-----2-----3--2-----0-----2--3--0--2-----0-----------------------0-----------------|--
E|--3-----3--------------3--------------------------3--1--0--------0--3-----3--0--3--------|--
C|--------------------------------------------------------------0--------------------------|--
G|-----------------------------------------------------------------------------------------|--

melody with outro

A|-----0-----2-----3--2-----0-----2--3--0--2-----0-----5-----3-----------|--
E|--3-----3--------------3--------------------------3--------0-----------|--
C|-----------------------------------------------------------0-----------|--
G|-----------------------------------------------------------------------|--

							http://www.guitartabcreator.com
Chords

Instruments
{"strings":[[[7,"_","_",6,"_","_",5,"_","_",4,"_",9,"_","_","_","_","_","|"],[".",6,"_","_",5,"_","_",4,"_",3,"_",8,"_","_","_","_","_","|"],[".","_",5,"_","_",4,"_","_","_",2,"_",7,"_","_","_","_","_","|"],[".","_","_","_","_","_","_","_","_","_","_","_","_","_","_","_","_","|"]],[[2,2,2,2,2,2,3,3,3,3,3,3,2,2,2,2,2,2,3,"_","_","_","|"],[3,3,3,3,3,3,3,3,3,3,3,3,3,3,3,3,3,3,3,"_","_","_","|"],[2,2,2,2,2,2,4,4,4,4,4,4,2,2,2,2,2,2,4,"_","_","_","|"],[".","_","_","_","_","_","_","_","_","_","_","_","_","_","_","_","_","_","_","_","_","_","|"]],[[".",0,"_",2,"_",3,2,"_",0,"_",2,3,0,2,"_",0,"_","_","_","_","_","_","_",0,"_","_","_","_","_","|"],[3,"_",3,"_","_","_","_",3,"_","_","_","_","_","_","_","_",3,1,0,"_","_",0,3,"_",3,0,3,"_","_","|"],[".","_","_","_","_","_","_","_","_","_","_","_","_","_","_","_","_","_","_","_",0,"_","_","_","_","_","_","_","_","|"],[".","_","_","_","_","_","_","_","_","_","_","_","_","_","_","_","_","_","_","_","_","_","_","_","_","_","_","_","_","|"]],[[".",0,"_",2,"_",3,2,"_",0,"_",2,3,0,2,"_",0,"_",5,"_",3,"_","_","_","|"],[3,"_",3,"_","_","_","_",3,"_","_","_","_","_","_","_","_",3,"_","_",0,"_","_","_","|"],[".","_","_","_","_","_","_","_","_","_","_","_","_","_","_","_","_","_","_",0,"_","_","_","|"],[".","_","_","_","_","_","_","_","_","_","_","_","_","_","_","_","_","_","_","_","_","_","_","|"]]],"numberofstrings":4,"notes":["A","E","C","G"],"capo":0,"stringnotes":["A4","E4","C1","G3"],"comments":["Beginning mess lol","Background rhythm in 6","melody","melody with outro"],"timing":[["W","W","W","W","W","W","W","W","W","W","W","W","W","W","W","W","W"],["W","W","W","W","W","W","W","W","W","W","W","W","W","W","W","W","W","W","W","W","W","W"],["W","W","W","W","W","W","W","W","W","W","W","W","W","W","W","W","W","W","W","W","W","W","W","W","W","W","W","W","W"],["W","W","W","W","W","W","W","W","W","W","W","W","W","W","W","W","W","W","W","W","W","W","W"]],"timingvisible":false,"tabcounter":24,"stave":3,"totalstaves":4,"instrument":"ukulele","selectedtuning":"ukulele","version":"13"}
Submitted by EzRiffs on Thu, 2022-09-15 15:35