Mexican Hat Dance - jarabe Tapatío - For Ukulele - Tabbed by EzRiffs

01234567891011121314151617181920212223
E
B
G
D
A
E
B
0 1 2 3 4 5 6 7 8 9 10 11 12 13 14 15 16 17 18 19 20 21 22 23
(/) Slide Up  (\) Slide Down  (h) Hammer On  (p) Pull Off  (b) Bend (r) Release (v) Vibrato

Part 1:

A|--7--6--7--4--3--4--------------------------------------0--2--4--5--2--------|--
E|--------------------5--4--5--0-----------------0--2--4-----------------------|--
C|-----------------------------------------1--2--------------------------------|--
G|-----------------------------------------------------------------------------|--

Part 2:

A|--5--4--5--2--1--2--------------------7--7--7--9--7--5--4--2--0--------|--
E|--------------------4--3--4--0-----------------------------------------|--
C|-----------------------------------------------------------------------|--
G|-----------------------------------------------------------------------|--

Part 3:

A|--2--2--2-----------------------------2--2--2--------------------------|--
E|-----------2--2--2--4--5--5--4-----------------2--2--2--4--5--4--------|--
C|-----------------------------------------------------------------------|--
G|-----------------------------------------------------------------------|--

Part 4:

A|--2--2--2-----------------------------2--2--2--4--2--0-----------------|--
E|-----------2--2--2--4--5--5--4--------------------------4--2--0--------|--
C|-----------------------------------------------------------------------|--
G|-----------------------------------------------------------------------|--

							http://www.guitartabcreator.com
Chords

Instruments
{"strings":[[[7,6,7,4,3,4,".",".",".",".",".",".","_",".",".",".",".",".",0,2,4,5,2,"_","_","|"],[".",".",".",".",".",".",5,4,5,0,".",".","_",".",".",0,2,4,".",".",".",".",".","_","_","|"],[".",".",".",".",".",".",".",".",".",".",".",".","_",1,2,".",".",".",".",".",".",".",".","_","_","|"],[".",".",".",".",".",".",".",".",".",".",".",".","_",".",".",".",".",".",".",".",".",".",".","_","_","|"]],[[5,4,5,2,1,2,".",".",".",".","_","_",7,7,7,9,7,5,4,2,0,"_","_","|"],[".",".",".",".",".",".",4,3,4,0,"_","_",".",".",".",".",".",".",".",".",".","_","_","|"],[".",".",".",".",".",".",".",".",".",".","_","_",".",".",".",".",".",".",".",".",".","_","_","|"],[".",".",".",".",".",".",".",".",".",".","_","_",".",".",".",".",".",".",".",".",".","_","_","|"]],[[2,2,2,".",".",".",".",".",".",".","_","_",2,2,2,".",".",".",".",".",".","_","_","|"],[".",".",".",2,2,2,4,5,5,4,"_","_",".",".",".",2,2,2,4,5,4,"_","_","|"],[".",".",".",".",".",".",".",".",".",".","_","_",".",".",".",".",".",".",".",".",".","_","_","|"],[".",".",".",".",".",".",".",".",".",".","_","_",".",".",".",".",".",".",".",".",".","_","_","|"]],[[2,2,2,".",".",".",".",".",".",".","_","_",2,2,2,4,2,0,".",".",".","_","_","|"],[".",".",".",2,2,2,4,5,5,4,"_","_",".",".",".",".",".",".",4,2,0,"_","_","|"],[".",".",".",".",".",".",".",".",".",".","_","_",".",".",".",".",".",".",".",".",".","_","_","|"],[".",".",".",".",".",".",".",".",".",".","_","_",".",".",".",".",".",".",".",".",".","_","_","|"]]],"numberofstrings":4,"notes":["A","E","C","G"],"capo":0,"stringnotes":["A4","E4","C1","G3"],"comments":["Part 1:","Part 2:","Part 3:","Part 4:"],"timing":[["W","W","W","W","W","W","W","W","W","W",null,"W","W","W","W","W","W","W","W","W","W"],["W","W","W","W","W","W","W","W","W","W",null,null,"W","W","W","W","W","W","W","W","W"],["W","W","W","W","W","W","W","W","W","W",null,null,"W","W","W","W","W","W","W","W","W"],["W","W","W","W","W","W","W","W","W","W",null,null,"W","W","W","W","W","W","W","W","W"]],"timingvisible":false,"tabcounter":24,"stave":3,"totalstaves":4,"instrument":"ukulele","selectedtuning":"ukulele","version":"13"}

Member for

10 months 2 weeks
Submitted by EzRiffs on Sun, 2021-02-21 12:51