Metallica - Enter Sandman Main Riff - Tabbed by EzRiffs

01234567891011121314151617181920212223
E
B
G
D
A
E
B
0 1 2 3 4 5 6 7 8 9 10 11 12 13 14 15 16 17 18 19 20 21 22 23
(/) Slide Up  (\) Slide Down  (h) Hammer On  (p) Pull Off  (b) Bend (r) Release (v) Vibrato

Main Riff

E|-----------------------------------------------------|--
B|-----------------------------------------------------|--
G|-----------------------------------------------------|--
D|-----------5-----------------------5-----------------|--
A|--------7--------------7--------7--------------7-----|--
E|--0-----------6--5--------0-----------6--5-----------|--

Build Up

E|------------------------------------------------------------|--
B|------------------------------------------------------------|--
G|------------------------------------------------------------|--
D|------------------------------------------------------------|--
A|--2--------------------2/7--2--------------------2/7--------|--
E|--0--0--0--0--0--0--0-------0--0--0--0--0--0--0-------------|--

Palm Muted...

E|--------------------------------------|--
B|--------------------------------------|--
G|--------------------------------------|--
D|--------------------------------------|--
A|--2--5--2--4--2--4--5--4--2-----------|--
E|--0--3--0--2--0--2--3--2--0-----------|--

							http://www.guitartabcreator.com
Chords

Instruments
{"strings":[[[".","_",".",".",".",".","_",".",".","_",".",".",".",".","_","_","_","|"],[".","_",".",".",".",".","_",".",".","_",".",".",".",".","_","_","_","|"],[".","_",".",".",".",".","_",".",".","_",".",".",".",".","_","_","_","|"],[".","_",".",5,".",".","_",".",".","_",".",5,".",".","_","_","_","|"],[".","_",7,".",".",".","_",7,".","_",7,".",".",".","_",7,"_","|"],[0,"_",".",".",6,5,"_",".",0,"_",".",".",6,5,"_","_","_","|"]],[[".",".",".",".",".",".",".",".",".",".",".",".",".",".",".",".",".",".",".",".","_","_","|"],[".",".",".",".",".",".",".",".",".",".",".",".",".",".",".",".",".",".",".",".","_","_","|"],[".",".",".",".",".",".",".",".",".",".",".",".",".",".",".",".",".",".",".",".","_","_","|"],[".",".",".",".",".",".",".",".",".",".",".",".",".",".",".",".",".",".",".",".","_","_","|"],[2,".",".",".",".",".",".",2,"/",7,2,".",".",".",".",".",".",2,"/",7,"_","_","|"],[0,0,0,0,0,0,0,".",".",".",0,0,0,0,0,0,0,".",".",".","_","_","|"]],[[".",".",".",".",".",".",".",".",".","_","_","_","|"],[".",".",".",".",".",".",".",".",".","_","_","_","|"],[".",".",".",".",".",".",".",".",".","_","_","_","|"],[".",".",".",".",".",".",".",".",".","_","_","_","|"],[2,5,2,4,2,4,5,4,2,"_","_","_","|"],[0,3,0,2,0,2,3,2,0,"_","_","_","|"]]],"numberofstrings":6,"notes":["E","B","G","D","A","E","B"],"capo":0,"stringnotes":["E4","B3","G3","D3","A2","E2"],"comments":["Main Riff","Build Up","Palm Muted..."],"timing":[["W","W","W","W","W","W","W","W","W","W","W","W","W","W",null,"W",null,null,"W"],["W","W","W","W","W","W","W","W",null,"W","W","W","W","W","W","W","W","W",null,"W"],["W","W","W","W","W","W","W","W","W"]],"timingvisible":false,"tabcounter":13,"stave":2,"totalstaves":3,"instrument":"6guitar","selectedtuning":"6_standard","version":"13"}

Member for

1 year
Submitted by EzRiffs on Mon, 2021-03-08 12:23