Inspector Gadget Theme Song for Ukulele - Tabbed by EzRiffs

01234567891011121314151617181920212223
E
B
G
D
A
E
B
0 1 2 3 4 5 6 7 8 9 10 11 12 13 14 15 16 17 18 19 20 21 22 23
(/) Slide Up  (\) Slide Down  (h) Hammer On  (p) Pull Off  (b) Bend (r) Release (v) Vibrato

Stave 1:

A|-----------0--2-----1-----0--------------------------0--2-----7--6-----------------|--
E|--0--2--3--------3-----2-----3--------------0--2--3-----------8--7-----------------|--
C|-----------------------------------------------------------------------------------|--
G|-----------------------------------------------------------------------------------|--

Stave 2:

A|-----------0--2-----1-----0-----------------------|--
E|--0--2--3--------3-----2-----3--0-----------------|--
C|--------------------------------------------------|--
G|--------------------------------------------------|--

							http://www.guitartabcreator.com
Chords

Instruments
{"strings":[[[".",".",".",0,2,".",1,".",0,".","_","_","_","_",".",".",".",0,2,"_",7,6,"_","_","_","_","_","|"],[0,2,3,".",".",3,".",2,".",3,"_","_","_","_",0,2,3,".",".","_",8,7,"_","_","_","_","_","|"],[".",".",".",".",".",".",".",".",".",".","_","_","_","_",".",".",".",".",".","_","_","_","_","_","_","_","_","|"],[".",".",".",".",".",".",".",".",".",".","_","_","_","_",".",".",".",".",".","_","_","_","_","_","_","_","_","|"]],[[".",".",".",0,2,".",1,".",0,".",".","_","_","_","_","_","|"],[0,2,3,".",".",3,".",2,".",3,0,"_","_","_","_","_","|"],[".",".",".",".",".",".",".",".",".",".",".","_","_","_","_","_","|"],[".",".",".",".",".",".",".",".",".",".",".","_","_","_","_","_","|"]]],"numberofstrings":4,"notes":["A","E","C","G"],"capo":0,"stringnotes":["A4","E4","C1","G3"],"comments":["Stave 1:","Stave 2:"],"timing":[["W","W","W","W","W","W","W","W","W","W","W","W","W","W","W","W","W","W","W","W","W","W","W","W","W","W","W"],["W","W","W","W","W","W","W","W","W","W","W","W","W","W","W","W"]],"timingvisible":false,"tabcounter":17,"stave":1,"totalstaves":2,"instrument":"ukulele","selectedtuning":"ukulele","version":"13"}
Submitted by EzRiffs on Thu, 2022-09-01 16:49