Ghosts & Goblins Nintendo Theme - For Ukulele - Tabbed by EzRiffs

01234567891011121314151617181920212223
E
B
G
D
A
E
B
0 1 2 3 4 5 6 7 8 9 10 11 12 13 14 15 16 17 18 19 20 21 22 23
(/) Slide Up  (\) Slide Down  (h) Hammer On  (p) Pull Off  (b) Bend (r) Release (v) Vibrato

Stave 1:

A|--10--9---8---7---6-----4--5--4--5--4--5-----------------------|--
E|--10--10--10--10--------4--5--4--5--4--5-----------------3-----|--
C|---------------------------------------------1--2--1--2--2-----|--
G|---------------------------------------------------------------|--

Stave 2:

A|--10--9---8---7---6-----4--5--4--5--4--5-----------------------|--
E|--10--10--10--10--------4--5--4--5--4--5-----------------5-----|--
C|---------------------------------------------1--2--1--2--2-----|--
G|---------------------------------------------------------------|--

							http://www.guitartabcreator.com
Chords

Tab Notes

Youtube Tutorial Video Here:

I also write sleepy piano music! Please check it out here: https://luiniss.wixsite.com/home

Spotify: https://open.spotify.com/artist/1fMm3Ojv3Q2uc7tHUJAHNW?si=MDRpj7giTdO3w…

AppleMusic: https://music.apple.com/us/artist/luiniss/330109083

BandCamp: www.luiniss.bandcamp.com

Instruments
{"strings":[[[10,9,8,7,6,"_",4,5,4,5,4,5,"_",".",".",".",".",".","_","|"],[10,10,10,10,".","_",4,5,4,5,4,5,"_",".",".",".",".",3,"_","|"],[".",".",".",".",".","_",".",".",".",".",".",".","_",1,2,1,2,2,"_","|"],[".",".",".",".",".","_",".",".",".",".",".",".","_",".",".",".",".",".","_","|"]],[[10,9,8,7,6,"_",4,5,4,5,4,5,"_",".",".",".",".",".","_","|"],[10,10,10,10,".","_",4,5,4,5,4,5,"_",".",".",".",".",5,"_","|"],[".",".",".",".",".","_",".",".",".",".",".",".","_",1,2,1,2,2,"_","|"],[".",".",".",".",".","_",".",".",".",".",".",".","_",".",".",".",".",".","_","|"]]],"numberofstrings":4,"notes":["A","E","C","G"],"capo":0,"stringnotes":["A4","E4","C1","G3"],"comments":["Stave 1:","Stave 2:"],"timing":[["W","W","W","W","W","W",null,"W","W","W","W","W","W",null,"W","W","W","W","W",null,"W"],["W","W","W","W","W",null,"W","W","W","W","W","W",null,"W","W","W","W","W",null,"W"]],"timingvisible":false,"tabcounter":20,"stave":1,"totalstaves":2,"instrument":"ukulele","selectedtuning":"ukulele","version":"13"}

Member for

10 months 2 weeks
Submitted by EzRiffs on Mon, 2021-02-22 11:16