Ghostbusters Theme Song - For Ukulele - Tabbed by EzRiffs

01234567891011121314151617181920212223
E
B
G
D
A
E
B
0 1 2 3 4 5 6 7 8 9 10 11 12 13 14 15 16 17 18 19 20 21 22 23
(/) Slide Up  (\) Slide Down  (h) Hammer On  (p) Pull Off  (b) Bend (r) Release (v) Vibrato

Stave 1:

A|--3--3----------------1-----0--------|--
E|--3-------------3-----1-----1--------|--
C|--0--------3h4--------2-----0--------|--
G|----------------------3-----2--------|--

Stave 2:

A|--------7-----5-----------------------------------------------7-----5-----------------------5--------------|--
E|--8--8-----8-----6--------8--8--8--8--6--8--------------8--8-----8-----6-----8--8--8--8--6-----8-----------|--
C|-----------------------------------------------------------------------------------------------------------|--
G|-----------------------------------------------------------------------------------------------------------|--

Stave 3:

A|---------------------------------------------------10-----10-----10-----10-----10------------------|--
E|-----8-----8-----8-----8-----8--6h7h8------------------8------8------8------8------8--6h7h8--------|--
C|---------------------------------------------------------------------------------------------------|--
G|--8-----8-----8-----8-----8------------------------8------8------8------8------8-------------------|--

Stave 4:

A|--10-----10-----10-----10---------/15--------|--
E|------8------8------8------8-----------------|--
C|---------------------------------------------|--
G|--8------8------8------8---------------------|--

							http://www.guitartabcreator.com
Chords

Instruments
{"strings":[[[3,3,"_",".",".",".",".","_",1,"_",0,"_","_","|"],[3,".","_",".",".",".",3,"_",1,"_",1,"_","_","|"],[0,".","_",3,"h",4,".","_",2,"_",0,"_","_","|"],[".",".","_",".",".",".",".","_",3,"_",2,"_","_","|"]],[[".",".",7,".",5,".","_","_",".",".",".",".",".",".","_","_","_","_",".",".",7,".",5,".","_",".",".",".",".",".",5,".","_","_","_","|"],[8,8,".",8,".",6,"_","_",8,8,8,8,6,8,"_","_","_","_",8,8,".",8,".",6,"_",8,8,8,8,6,".",8,"_","_","_","|"],[".",".",".",".",".",".","_","_",".",".",".",".",".",".","_","_","_","_",".",".",".",".",".",".","_",".",".",".",".",".",".",".","_","_","_","|"],[".",".",".",".",".",".","_","_",".",".",".",".",".",".","_","_","_","_",".",".",".",".",".",".","_",".",".",".",".",".",".",".","_","_","_","|"]],[[".",".",".",".",".",".",".",".",".",".",".",".",".",".",".","_","_","_","_",10,".",10,".",10,".",10,".",10,".",".",".",".",".",".","_","_","|"],[".",8,".",8,".",8,".",8,".",8,6,"h",7,"h",8,"_","_","_","_",".",8,".",8,".",8,".",8,".",8,6,"h",7,"h",8,"_","_","|"],[".",".",".",".",".",".",".",".",".",".",".",".",".",".",".","_","_","_","_",".",".",".",".",".",".",".",".",".",".",".",".",".",".",".","_","_","|"],[8,".",8,".",8,".",8,".",8,".",".",".",".",".",".","_","_","_","_",8,".",8,".",8,".",8,".",8,".",".",".",".",".",".","_","_","|"]],[[10,".",10,".",10,".",10,".","_","_","/",15,"_","_","|"],[".",8,".",8,".",8,".",8,"_","_",".",".","_","_","|"],[".",".",".",".",".",".",".",".","_","_",".",".","_","_","|"],[8,".",8,".",8,".",8,".","_","_",".",".","_","_","|"]]],"numberofstrings":4,"notes":["A","E","C","G"],"capo":0,"stringnotes":["A4","E4","C1","G3"],"comments":["Stave 1:","Stave 2:","Stave 3:","Stave 4:"],"timing":[["W","W","W","W",null,"W","W","W","W","W","W","W","W"],["W","W","W","W","W","W","W","W","W","W","W","W","W","W","W","W","W","W","W","W","W","W","W","W","W","W","W","W","W","W","W","W","W","W","W"],["W","W","W","W","W","W","W","W","W","W","W",null,"W",null,"W","W","W","W","W","W","W","W","W","W","W","W","W","W","W","W",null,"W",null,"W","W","W",null,"W"],["W","W","W","W","W","W","W","W","W","W",null,"W","W","W",null,"W"]],"timingvisible":false,"tabcounter":15,"stave":3,"totalstaves":4,"instrument":"ukulele","selectedtuning":"ukulele","version":"13"}
Submitted by EzRiffs on Sun, 2022-07-10 16:12