Baby Shark - Tabbed by: EzRiffs

Chords

01234567891011121314151617181920212223
E
B
G
D
A
E
B
0 1 2 3 4 5 6 7 8 9 10 11 12 13 14 15 16 17 18 19 20 21 22 23
(/) Slide Up  (\) Slide Down  (h) Hammer On  (p) Pull Off  (b) Bend (r) Release (v) Vibrato

Each chord played 9 Times Except last chord played 1 time :)

E|--------3--3--3--3--3--3--3--3--3-----0--0--0--0--0--0--0--0--0--
B|--------3--3--3--3--3--3--3--3--3-----1--1--1--1--1--1--1--1--1--
G|--------0--0--0--0--0--0--0--0--0-----0--0--0--0--0--0--0--0--0--
D|--0--4--0--0--0--0--0--0--0--0--0-----2--2--2--2--2--2--2--2--2--
A|--------2--2--2--2--2--2--2--2--2-----3--3--3--3--3--3--3--3--3--
E|--------3--3--3--3--3--3--3--3--3--------------------------------



E|--0--0--0--0--0--0--0--0--0-----2--
B|--0--0--0--0--0--0--0--0--0-----3--
G|--0--0--0--0--0--0--0--0--0-----2--
D|--2--2--2--2--2--2--2--2--2-----0--
A|--2--2--2--2--2--2--2--2--2--------
E|--0--0--0--0--0--0--0--0--0--------

							http://www.guitartabcreator.com
Tab Notes

Super easy cute song! Chords: G, C, E minor & D

Strumming Pattern: Down Down Down Down Up Up Down Down Down

Youtube Tutorial Video: https://www.youtube.com/watch?v=nAwgwu39T4w

I also write sleepy piano music! Please check it out on:

Spotify: https://open.spotify.com/artist/1fMm3Ojv3Q2uc7tHUJAHNW?si=GfWrcwgUS4aLhvzWSUVJRg

AppleMusic: https://music.apple.com/us/artist/luiniss/330109083

Bandcamp: https://luiniss.bandcamp.com/

Instruments
{"title":"Baby Shark - Tabbed by: EzRiffs","strings":[[[".",".",3,3,3,3,3,3,3,3,3,"_",0,0,0,0,0,0,0,0,0],[".",".",3,3,3,3,3,3,3,3,3,"_",1,1,1,1,1,1,1,1,1],[".",".",0,0,0,0,0,0,0,0,0,"_",0,0,0,0,0,0,0,0,0],[0,4,0,0,0,0,0,0,0,0,0,"_",2,2,2,2,2,2,2,2,2],[".",".",2,2,2,2,2,2,2,2,2,"_",3,3,3,3,3,3,3,3,3],[".",".",3,3,3,3,3,3,3,3,3,"_",".",".",".",".",".",".",".",".","."]],[[0,0,0,0,0,0,0,0,0,"_",2],[0,0,0,0,0,0,0,0,0,"_",3],[0,0,0,0,0,0,0,0,0,"_",2],[2,2,2,2,2,2,2,2,2,"_",0],[2,2,2,2,2,2,2,2,2,"_","."],[0,0,0,0,0,0,0,0,0,"_","."]]],"numberofstrings":6,"notes":["E","B","G","D","A","E","B"],"capo":0,"stringnotes":["E4","B3","G3","D3","A2","E2"],"comments":["Each chord played 9 Times Except last chord played 1 time :)",""],"timing":[["W","W","W","W","W","W","W","W","W","W","W",null,"W","W","W","W","W","W","W","W","W"],["W","W","W","W","W","W","W","W","W",null,"W"]],"timingvisible":false,"tabcounter":11,"stave":1,"totalstaves":2,"instrument":"6guitar","selectedtuning":"6_standard","version":"13"}

Member for

2 months
Submitted by EzRiffs on Wed, 2020-04-01 14:36