chimney melody

Chords

01234567891011121314151617181920212223
E
B
G
D
A
E
B
0 1 2 3 4 5 6 7 8 9 10 11 12 13 14 15 16 17 18 19 20 21 22 23
(/) Slide Up  (\) Slide Down  (h) Hammer On  (p) Pull Off  (b) Bend (r) Release (v) Vibrato

Stave 1:

E|--4--0-----------------------------------------4--0--------------------2--0--------------------5--
B|--------4--2-----0--4--2--4--0--------0--4--2--------4--2-----0--4--2--------0--4-----0--4--2--5--
G|--------------0-----------------0--0-----------------------0-----------------------0-----------5--
D|-----------------------------------------------------------------------------------------------5--
A|--------------------------------------------------------------------------------------------------
E|--------------------------------------------------------------------------------------------------

Stave 2:

E|--7-----------------------------------------------7-----------------------5-----------------------
B|-----8--7--5--------7--5--7--5-----8--------7--5-----8--7--5--------7--5-----8-----7--------7--5--
G|--------------4--7--------------7-----4--7--------------------4--7--------------7-----4--7--------
D|--------------------------------------------------------------------------------------------------
A|--------------------------------------------------------------------------------------------------
E|--------------------------------------------------------------------------------------------------

Stave 3:

E|--
B|--
G|--
D|--
A|--
E|--

							http://www.guitartabcreator.com
Instruments
{"strings":[[[4,0,".",".",".",".",".",".",".",".",".",".",".",".",".",4,0,".",".",".",".",".",".",2,0,".",".",".",".",".",".",5],[".",".",4,2,".",0,4,2,4,0,".",".",0,4,2,".",".",4,2,".",0,4,2,".",".",0,4,".",0,4,2,5],[".",".",".",".",0,".",".",".",".",".",0,0,".",".",".",".",".",".",".",0,".",".",".",".",".",".",".",0,".",".",".",5],[".",".",".",".",".",".",".",".",".",".",".",".",".",".",".",".",".",".",".",".",".",".",".",".",".",".",".",".",".",".",".",5],[".",".",".",".",".",".",".",".",".",".",".",".",".",".",".",".",".",".",".",".",".",".",".",".",".",".",".",".",".",".",".","."],[".",".",".",".",".",".",".",".",".",".",".",".",".",".",".",".",".",".",".",".",".",".",".",".",".",".",".",".",".",".",".","."]],[[7,".",".",".",".",".",".",".",".",".",".",".",".",".",".",".",7,".",".",".",".",".",".",".",5,".",".",".",".",".",".","."],[".",8,7,5,".",".",7,5,7,5,".",8,".",".",7,5,".",8,7,5,".",".",7,5,".",8,".",7,".",".",7,5],[".",".",".",".",4,7,".",".",".",".",7,".",4,7,".",".",".",".",".",".",4,7,".",".",".",".",7,".",4,7,".","."],[".",".",".",".",".",".",".",".",".",".",".",".",".",".",".",".",".",".",".",".",".",".",".",".",".",".",".",".",".",".",".","."],[".",".",".",".",".",".",".",".",".",".",".",".",".",".",".",".",".",".",".",".",".",".",".",".",".",".",".",".",".",".",".","."],[".",".",".",".",".",".",".",".",".",".",".",".",".",".",".",".",".",".",".",".",".",".",".",".",".",".",".",".",".",".",".","."]],[[],[],[],[],[],[]]],"numberofstrings":6,"notes":["E","B","G","D","A","E","B"],"capo":0,"stringnotes":["E4","B3","G3","D3","A2","E2"],"comments":["Stave 1:","Stave 2:","Stave 3:"],"timing":[[null,null,null,null,null,null,null,null,null,null,null,null,null,null,null,null,null,null,null,null,null,null,null,null,null,null,null,null,null,null,null,null,null],[null,null,null,null,null,null,null,null,null,null,null,null,null,null,null,null,null,null,null,null,null,null,null,null,null,null,null,null,null,null,null,null],[]],"timingvisible":false,"tabcounter":0,"stave":0,"totalstaves":3,"instrument":"6guitar","selectedtuning":"6_standard","version":"13"}

Member for

3 weeks 3 days
About Me
just tryna bang tunes
Submitted by e.you on Tue, 2020-09-29 05:20