Sound will begin in 5 seconds

gandhi

Chords
01234567891011121314151617181920212223
E
B
G
D
A
E
B
0 1 2 3 4 5 6 7 8 9 10 11 12 13 14 15 16 17 18 19 20 21 22 23
Song Science #1: How Pros Use 6 Chords to Write Hit Songs
(/) Slide Up  (\) Slide Down  (h) Hammer On  (p) Pull Off  (b) Bend (r) Release (v) Vibrato

Stave 1:

E|---------------------------------------------------------------------------------------------------
B|---------------------8-----------------------------------------------------------------------------
G|--------7\5-------7--------------------------------7\5-----4/12-------------------------7--9-------
D|-----9-------7/9-----------5--4--5--7--9--7--9-------------------9--7-----------5--7/9--------9p7--
A|------------------------7-----------------------7-------3--------------------7---------------------
E|--8------------------------5--3--5--7--8--7--8-------------------9--7--5--8------------------------

Stave 2:

E|---------|-----|--|--------0--0--0-----------------------------0--0--0----------------------
B|---------|-----|--|--------0--0--0--------------7--8-----------0--0--0----------------------
G|---------|-----|--|--------0--0--0--------------------9--------0--0--0------------9p7-------
D|---------|--7--|--|-----9--9--9--9--------5--7--------------9--9--9--9--9p7-----------------
A|---------|-----|--|-----7--7--7--7-----------------------------7--7--7-----------------7p5--
E|--7p5h7--|--5--|--|--8-----8--8--8--5--8-----------------8-----8--8--8-------5p3------------

Stave 3:

E|-------------------------
B|-------------------------
G|-------------------------
D|-------7h9--------10h12--
A|-------------------------
E|--5h7-------8h10---------

http://www.guitartabcreator.com
Guitar Tab Creator is intended to store guitar tab created through the tool. It currently does not support in-line text editing. Any text you place in here will be lost. If you need to comment on your tab, please use the "Tab Notes" section located below.