Sound will begin in 5 seconds

embers

01234567891011121314151617181920212223
E
B
G
D
A
E
B
0 1 2 3 4 5 6 7 8 9 10 11 12 13 14 15 16 17 18 19 20 21 22 23
Song Science #1: How Pros Use 6 Chords to Write Hit Songs
(/) Slide Up  (\) Slide Down  (h) Hammer On  (p) Pull Off  (b) Bend (r) Release (v) Vibrato

Stave 1:

E|-------------------------------------------------------------|----------------------
B|-------------------------------------------------------------|----------------------
G|-------------------------------------------------------------|--9b10r9----7\5-------
D|------12------12------12--13h15p13p12------------------------|-----------------5/7--
A|---------------------------------------15p13p12-----------5--|----------------------
E|--13------13------13-----------------------------15p13\7-----|----------------------

Stave 2:

E|-----------------------------------|-------------------------------------------------
B|-----------------------------------|-------------------------------------------------
G|-----------------------------------|-------------------------12--------------14------
D|-----7-----7----7/10--8--7\5h7-----|-------7-------10------------12--14--15------14--
A|--5-----5-----------------------3--|--3/5-----5/8------8/10--------------------------
E|-----------------------------------|-------------------------------------------------

Stave 3:

E|------------------------------|----------------------------------|--
B|------------------------------|----------------------------------|--
G|------------------------------|----------------------------------|--
D|------15----------17----------|--14h15p14-----------------10h13--|--
A|--15------14--15------15--14--|------------17--15--14\10---------|--
E|------------------------------|----------------------------------|--

Stave 4:

E|----------------13h17p13---------------------------------------------------------------|--
B|---------14h15------------15p14---------18p15p14---------------------------------------|--
G|--14h15--------------------------15p14------------15p14p12--14h15p14/17--15p14p12--14--|--
D|---------------------------------------------------------------------------------------|--
A|---------------------------------------------------------------------------------------|--
E|---------------------------------------------------------------------------------------|--

Stave 5:

E|-----------------------------------------------------------------------------------|--
B|-----------------------------------------------------------------------------------|--
G|--14p12h14/15\14p12\10------10h12p10-------------10h12/14\12p10---------12/14--10--|--
D|------------------------12------------12--10h12------------------12p10-------------|--
A|-----------------------------------------------------------------------------------|--
E|-----------------------------------------------------------------------------------|--

Stave 6:

E|------------------------|-----------------------------------------------------------|--
B|------------------------|-----------------------------------------------------------|--
G|------------------------|-----------------------------------------------------------|--
D|--12--10----------------|-----------------------------------------------------------|--
A|----------11\5--3-------|--5--------------5--------------------------5--------------|--
E|-------------------3/6--|-----0--0--0--0-----0--0--0--0--0--0--0--0-----0--0--0--0--|--

Stave 7:

E|-----------------------------------------------------------------------|-----------------|--
B|-----------------------------------------------------------------------|-----------------|--
G|-----------------------------------------------------------------------|-----------------|--
D|-----------------------------------------------------------------------|-----------------|--
A|--5--------------------------5--------------5--------------------------|--5--------------|--
E|-----0--0--0--0--0--0--0--0-----1--1--1--1-----1--1--1--1--1--1--1--1--|-----0--0--0--0--|--

Stave 8:

E|-----------------------------------------------------------------------|-----------------
B|-----------------------------------------------------------------------|-----------------
G|-----------------------------------------------------------------------|-----------------
D|-----------------------------------------------------------------------|-----------------
A|--5--------------------------5--------------5--------------------------|--5--------------
E|-----0--0--0--0--0--0--0--0-----0--0--0--0-----0--0--0--0--0--0--0--0--|-----1--1--1--1--

Stave 9:

E|-----------------------------------------------------------------------
B|-----------------------------------------------------------------------
G|-----------------------------------------------------------------------
D|-----------------------------------------------------------------------
A|--5--------------------------5--------------5--------------------------
E|-----1--1--1--1--1--1--1--1-----1--1--1--1-----1--1--1--1--1--1--1--1--

Stave 10:

E|--
B|--
G|--
D|--
A|--
E|--

Stave 11:

E|--
B|--
G|--
D|--
A|--
E|--

http://www.guitartabcreator.com
Guitar Tab Creator is intended to store guitar tab created through the tool. It currently does not support in-line text editing. Any text you place in here will be lost. If you need to comment on your tab, please use the "Tab Notes" section located below.