Sound will begin in 5 seconds

Such as mine

Chords
01234567891011121314151617181920212223
E
B
G
D
A
E
B
0 1 2 3 4 5 6 7 8 9 10 11 12 13 14 15 16 17 18 19 20 21 22 23
Song Science #1: How Pros Use 6 Chords to Write Hit Songs
(/) Slide Up  (\) Slide Down  (h) Hammer On  (p) Pull Off  (b) Bend (r) Release (v) Vibrato

Stave 1:

E|----------------------------------------------------|--
B|--------------2-----------------------2--3p2--0-----|--
G|--------2-----------2-----------2----------------2--|--
D|-----4-----4-----4-----4-----4-----4----------------|--
A|--0-----------------------0-------------------------|--
E|----------------------------------------------------|--

Stave 2:

E|---------13--16r13----------------15--17--17b18--18--18--18--18r15----------------------------------
B|--13/15-------------15-----15/17------------------------------------17r15---------------------------
G|---------------------------------------------------------------------------16r14--------------------
D|----------------------------------------------------------------------------------17r15--17/19--17--
A|----------------------------------------------------------------------------------------------------
E|----------------------------------------------------------------------------------------------------

Stave 3:

E|-------------|--
B|-------------|--
G|-------------|--
D|-------------|--
A|-----15h17v--|--
E|-------------|--

Stave 4:

E|-----------------------------------------------------------|----------------|--
B|-----------------------------------------------------------|----------------|--
G|-----------------------------------------------------------|----------------|--
D|-----------------------------------------------------------|----------------|--
A|--1-----1--1--1-----3-----3--3--3-----4-----4--4--4-----2--|--------3/5--0--|--
E|--3-----3--3--3-----5-----5--5--5-----6-----6--6--6-----0--|--0--0----------|--

Stave 5:

E|--------------------------------------------|--
B|--------------------------------------------|--
G|--------------------------------------------|--
D|--3-----------------------5--7-----5--7-----|--
A|--1-----2--2-----2--2-----3--5-----3--5-----|--
E|--------0--0-----0--0-----------0--------0--|--

Stave 6:

E|--------------------------------|-----------|--
B|--------------------------------|-----------|--
G|--------------------------------|-----------|--
D|--------------------------------|-----------|--
A|-----5--------7--------9-----7--|--------5--|--
E|--0--0--0--0-----0--0-----0-----|--0--0-----|--

http://www.guitartabcreator.com
Guitar Tab Creator is intended to store guitar tab created through the tool. It currently does not support in-line text editing. Any text you place in here will be lost. If you need to comment on your tab, please use the "Tab Notes" section located below.