Sound will begin in 5 seconds

Poroject 1

Chords
01234567891011121314151617181920212223
E
B
G
D
A
E
B
0 1 2 3 4 5 6 7 8 9 10 11 12 13 14 15 16 17 18 19 20 21 22 23
Song Science #1: How Pros Use 6 Chords to Write Hit Songs
(/) Slide Up  (\) Slide Down  (h) Hammer On  (p) Pull Off  (b) Bend (r) Release (v) Vibrato

Stave 1:

E|-----------------|--------------------
B|-----------------|--------------------
G|-----------------|--------------------
D|--2--2--2--2--2--|-----5--7--5--4--2--
A|--2--2--2--2--2--|--0--3--5--3--2--0--
E|--0--0--0--0--0--|--0-----------------

Stave 2:

E|--------------------------------------------
B|--------------------------------------------
G|--------------------------------------------
D|--------------------------------------------
A|---------2---------2---------2--3--2--------
E|--0h2r3-----0h2r3-----0h2r3-----------3--2--

Stave 3:

E|--------------------------------------------
B|--------------------------------------------
G|--------------------------------------------
D|--------------------------------------------
A|---------7---------7---------7--8--7--------
E|--0h7r8-----0h7r8-----0h7r8-----------8--7--

Stave 4:

E|------------------------
B|------------------------
G|------------------------
D|------------------3--5--
A|-------3--5--3/5--------
E|--3/5-------------------

Stave 5:

E|----------------------|-----------------------------------------------------------
B|----------------------|-----------------------------------------------------------
G|----------------------|-----------------------------------------------------------
D|--2--2-----2----------|-----7--7-----9--9-----5--5-----7--7-----------------------
A|--2--2--0--2--0--2-3--|--0--5--5-----7--7-----3--3-----5--5-----7--7-----9--9-----
E|--0--0--0--0--0--2/3--|--0--------------------------------------5--5-----7--7-----

Stave 6:

E|-----------------------|--------------------------------------------------------
B|-----------0-----------|-----------0-----------------0-----------------0--------
G|--------0-----0--------|--------0-----0-----------0-----0-----------0-----0-----
D|-----2-----------2-----|-----2-----------2-----1-----------1-----1-----------1--
A|--3-----------------3--|--3-----------------2-----------------2-----------------
E|-----------------------|--------------------------------------------------------

Stave 7:

E|-------------------------------------------------|--------------------------------------
B|-----------0-----------------0h1--------0--------|-----------0-----------------0--------
G|--------0-----0-----------0-------0--------0-----|--------0-----0-----------2-----2-----
D|-----2-----------2-----2-------------2--------2--|-----1-----------1-----1-----------1--
A|--3-----------------3----------------------------|--2-----------------2-----------------
E|-------------------------------------------------|--------------------------------------

Stave 8:

E|--------------------0--|--
B|-----------0--------1--|--
G|--------0-----0-----0--|--
D|-----2-----------2--2--|--
A|--3-----------------3--|--
E|-----------------------|--

Stave 9:

E|--------------|-----
B|--------------|-----
G|--------------|-----
D|--------------|-----
A|--4--4-----7--|--2--
E|--2--2-----5--|--0--

Stave 10:

E|--
B|--
G|--
D|--
A|--
E|--

http://www.guitartabcreator.com
Guitar Tab Creator is intended to store guitar tab created through the tool. It currently does not support in-line text editing. Any text you place in here will be lost. If you need to comment on your tab, please use the "Tab Notes" section located below.