Sound will begin in 5 seconds

Dad's song

Chords
01234567891011121314151617181920212223
E
B
G
D
A
E
B
0 1 2 3 4 5 6 7 8 9 10 11 12 13 14 15 16 17 18 19 20 21 22 23
(/) Slide Up  (\) Slide Down  (h) Hammer On  (p) Pull Off  (b) Bend (r) Release (v) Vibrato

Stave 1:

E|--------------------------------------------------------------------------------------
B|--0--------1--------3--3--------5--------3--0--------1--------3--3--------5--------3--
G|-----0--------0-----------0--------0-----------0--------0-----------0--------0--------
D|--------2--------2-----------4--------4-----------2--------2-----------4--------4-----
A|--3--------------------5--------------------3--------------------5--------------------
E|--------------------------------------------------------------------------------------

Stave 2:

E|-----------0--------------------0---------------------0--------------0-----------0-----------
B|--5-----5-----5-----5--5-----5-----5-----5--8------8-----8--7-----7-----5-----5-----5-----5--
G|-----0-----------0--------0-----------0------------------------0-----------0-----------0-----
D|------------------------------------------------9--------------------------------------------
A|--7--------------------7--------------------10--------------9-----------7--------------------
E|---------------------------------------------------------------------------------------------

Stave 3:

E|-----------0---------------------0--------------0--------------0--------------------0-----------
B|--5-----5-----5-----5--8------8-----8--7-----7-----7--5-----5-----5-----5--5-----5-----5-----5--
G|-----0-----------0------------------------0--------------0-----------0--------0-----------0-----
D|---------------------------9--------------------------------------------------------------------
A|--7--------------------10--------------9--------------7-----------------------------------------
E|---------------------------------------------------------------------------0--------------------

Stave 4:

E|-----------------------2--------3--------5-----------------------2--------3--------5-----3--------
B|--0--------1--------3-----0--------0--------0--------1--------3-----0--------0--------0-----0-----
G|-----0--------0--------------0--------0--------0--------0--------------0--------0--------------0--
D|--------2--------2-----0--------------------------2--------2-----0--------------------------------
A|--3-----------------------------------------3-----------------------------------------------------
E|--------------------------------------------------------------------------------------------------

Stave 5:

E|--2--------3-----7--------5--------8-----7-----3--------2--------5-----3-----2--------3--------5--
B|-----0--------0-----0--------0--------0-----0-----0--------0--------0-----0-----0--------0--------
G|--------0--------------0--------0--------------------0--------0--------------------0--------0-----
D|-----------------------------------------------------------------------------0--------------------
A|-----------------7-----------------------------3--------------------------------------------------
E|--------------------------------------------------------------------------------------------------

Stave 6:

E|--3--------2-----3-----2-----3-----2h3p2-----2--3--3-----5-----3h5p3-----3--5--5-----5--7-----5h7p5--
B|-----0--------0-----0-----0-----0---------0-----------0-----0---------0-----------0--------0---------
G|--------0--------------------------------------------------------------------------------------------
D|-----------------------2-----------------------------------------------------------------------------
A|---------------------------------------------------3---------------------------5---------------------
E|-----------------------------------------------------------------------------------------------------

Stave 7:

E|-----5--7--8-----7-----5-----7-----5-----3-----2-----3--0--------0-----3-----0-----3--0--0-----3-----
B|--0-----------0-----0-----0-----0-----0-----0-----0-----0--------0--0-----0-----0-----1--1--------1--
G|--------------------------------------------------------0--------0--------------------0--0--0--------
D|--------------------------------------------------------2-----------------------------2--------------
A|--------------------------------------------------------2-----------------------------3--------------
E|--------------------------------------------------------0--------------------------------------------

Stave 8:

E|------------------0-----0--0-----3-----0-----3--0--0-----3---------------------0-----
B|--0h1p0-----0--1-----0--0--0--0-----0-----0-----1--1--1-----1--0h1p0-----0--1-----0--
G|---------0--------------0--0--------------------0--0------------------0--------------
D|------------------------2-----------------------2------------------------------------
A|------------------------2-----------------------3------------------------------------
E|------------------------0------------------------------------------------------------

http://www.guitartabcreator.com
Guitar Tab Creator is intended to store guitar tab created through the tool. It currently does not support in-line text editing. Any text you place in here will be lost. If you need to comment on your tab, please use the "Tab Notes" section located below.