melodic demo

Chords

01234567891011121314151617181920212223
E
B
G
D
A
E
B
0 1 2 3 4 5 6 7 8 9 10 11 12 13 14 15 16 17 18 19 20 21 22 23
(/) Slide Up  (\) Slide Down  (h) Hammer On  (p) Pull Off  (b) Bend (r) Release (v) Vibrato

verse intro

D|-------------------------
A|---------3---------------
F|-----------0---------0---
C|-4-4-4-------5-5-5-----4-
G|-2-2-2-3-----3-3-3-3-----
C|-2-2-2-------3-3-3-------

verse 1

D|------------------------------
A|------------------------------
F|------------------------------
C|------------------------------
G|-2-2-2-2-3-3-3----2-2-2-2-5-3-
C|-2-2-2-2-3-3-3----2-2-2-2-5-3-

verse 1 (cont)

D|------------------------------------
A|----------------------------------3-
F|----------------------------------0-
C|----------------------------------0-
G|-2-2-2-2-3-3-3----2-2-2-2-3-3-3-3-3-
C|-2-2-2-2-3-3-3----2-2-2-2-0-0-0-0---

Stave 4:

D|----------------------------------------------------
A|--------------------------------------------------3-
F|--------------------------------------------------0-
C|--------------------------------------------------0-
G|-2-2-2-2-2-2----2-2-2-2----3-3-3-3-3-3----3-3-3-3-3-
C|-2-2-2-2-2-2----2-2-2-2----2-2-2-2-2-2----2-2-2-2---

Stave 5:

D|---
A|---
F|---
C|---
G|-2-
C|-2-

							http://www.guitartabcreator.com
Instruments
{"strings":[[[".",".",".",".",".",".",".",".",".",".",".","."],[".",".",".",".",3,".",".",".",".",".",".","."],[".",".",".",".",".",0,".",".",".",".",0,"."],[4,4,4,".",".",".",5,5,5,".",".",4],[2,2,2,3,".",".",3,3,3,3,".","."],[2,2,2,".",".",".",3,3,3,".",".","."]],[[".",".",".",".",".",".",".","_",".",".",".",".",".","."],[".",".",".",".",".",".",".","_",".",".",".",".",".","."],[".",".",".",".",".",".",".","_",".",".",".",".",".","."],[".",".",".",".",".",".",".","_",".",".",".",".",".","."],[2,2,2,2,3,3,3,"_",2,2,2,2,5,3],[2,2,2,2,3,3,3,"_",2,2,2,2,5,3]],[[".",".",".",".",".",".",".","_",".",".",".",".",".",".",".",".","."],[".",".",".",".",".",".",".","_",".",".",".",".",".",".",".",".",3],[".",".",".",".",".",".",".","_",".",".",".",".",".",".",".",".",0],[".",".",".",".",".",".",".","_",".",".",".",".",".",".",".",".",0],[2,2,2,2,3,3,3,"_",2,2,2,2,3,3,3,3,3],[2,2,2,2,3,3,3,"_",2,2,2,2,0,0,0,0,"."]],[[".",".",".",".",".",".","_",".",".",".",".","_",".",".",".",".",".",".","_",".",".",".",".","."],[".",".",".",".",".",".","_",".",".",".",".","_",".",".",".",".",".",".","_",".",".",".",".",3],[".",".",".",".",".",".","_",".",".",".",".","_",".",".",".",".",".",".","_",".",".",".",".",0],[".",".",".",".",".",".","_",".",".",".",".","_",".",".",".",".",".",".","_",".",".",".",".",0],[2,2,2,2,2,2,"_",2,2,2,2,"_",3,3,3,3,3,3,"_",3,3,3,3,3],[2,2,2,2,2,2,"_",2,2,2,2,"_",2,2,2,2,2,2,"_",2,2,2,2,"."]],[["."],["."],["."],["."],[2],[2]]],"numberofstrings":6,"notes":["D","A","F","C","G","C"],"capo":0,"stringnotes":["D3","A2","F2","C2","G1","C1"],"comments":["verse intro","verse 1","verse 1 (cont)","Stave 4:","Stave 5:"],"timing":[["W","W","W","W","W","W","W","W","W","W","W","W"],["W","W","W","W","W","W","W","W","W","W","W","W","W","W","W","W","W","W"],["W","W","W","W","W","W","W",null,"W","W","W","W","W","W","W","W","W"],["W","W","W","W","W","W","W","W","W","W","W",null,"W","W","W","W","W","W",null,"W","W","W","W","W"],["W"]],"timingvisible":false,"tabcounter":0,"stave":4,"totalstaves":5,"instrument":"6guitar","selectedtuning":"Drop C","version":"13"}

Member for

4 months 3 weeks
Submitted by Exhaler_99 on Tue, 2020-08-25 07:01