Sound will begin in 5 seconds

VIK

01234567891011121314151617181920212223
E
B
G
D
A
E
B
0 1 2 3 4 5 6 7 8 9 10 11 12 13 14 15 16 17 18 19 20 21 22 23
Song Science #1: How Pros Use 6 Chords to Write Hit Songs
(/) Slide Up  (\) Slide Down  (h) Hammer On  (p) Pull Off  (b) Bend (r) Release (v) Vibrato

Stave 1:

E|--------------------------------------------
B|--------------------------------------------
G|-----------------------------12--10--10-----
D|----------14--12--10--9--10-----------------
A|--12--12------------------------------------
E|--------------------------------------------

Stave 2:

E|--------------------------------------------------------
B|--------------------------------------------------------
G|-------------------------------------------14-----------
D|--14--12--10--9--10--12--9--9--10--12--14---------------
A|--------------------------------------------------------
E|--------------------------------------------------------

Stave 3:

E|---------------------------------------------------------------
B|---------------------------------------------------------------
G|-----------------13--14------12--10--9-------------------------
D|--14--13--14-------------14-------------12--10--12--14--14-----
A|---------------------------------------------------------------
E|---------------------------------------------------------------

Stave 4:

E|------------------------------------------
B|------------------------------------------
G|---------------------------------7--9-----
D|-----10--10--9--7--9--10--9--10--------7--
A|--0---------------------------------------
E|------------------------------------------

Stave 5:

E|--------------------------------------------------------------------
B|--------------------------------------------------------------------
G|--9--9-----10--9--7------------7--9--10--10--9--7--9--12--10--9-----
D|--------7------------10--9--7------------------------------------9--
A|--------------------------------------------------------------------
E|--------------------------------------------------------------------

Stave 6:

E|-------------------------------------------------
B|-------------------------------------------------
G|-------------------------------------------------
D|-------------------------------------------------
A|--0--7--8-------------------7--------------------
E|-----------10--8--7--8--10-----7--7--8--7--4--5--

Stave 7:

E|-------------------------------------------------
B|-------------------------------------------------
G|-------------------------------------------------
D|-------------------------------------------------
A|--0--7--8---------------10--8--8--------8--7--7--
E|-----------10--8--7--8------------7--8-----------

Stave 8:

E|--------------------------------------------------------------
B|--------------------------------------------------------------
G|--------------------------------------------------------------
D|--------------------------------------------------------------
A|--------------------------------------------------------------
E|--8--8--7--7--5--5--5--7--8--8--8--8--10--10--12--12--10--10--

Stave 9:

E|---------------------------------------
B|---------------------------------------
G|---------------------------------------
D|---------------------------------------
A|---------------------------------------
E|--5--5--5--8--5--5--5--10--7--5--8--7--

Stave 10:

E|-------------------------------------------
B|-------------------------------------------
G|-------------------------------------------
D|-------------------------------------------
A|--7--8--7--7--10--10--7--8--7--7--7--8--8--
E|-------------------------------------------

http://www.guitartabcreator.com
Guitar Tab Creator is intended to store guitar tab created through the tool. It currently does not support in-line text editing. Any text you place in here will be lost. If you need to comment on your tab, please use the "Tab Notes" section located below.