Sound will begin in 5 seconds

The Endless Path

Chords
01234567891011121314151617181920212223
E
B
G
D
A
E
B
0 1 2 3 4 5 6 7 8 9 10 11 12 13 14 15 16 17 18 19 20 21 22 23
Song Science #1: How Pros Use 6 Chords to Write Hit Songs
(/) Slide Up  (\) Slide Down  (h) Hammer On  (p) Pull Off  (b) Bend (r) Release (v) Vibrato

Stave 1:

E|-----12--10---------10---------------------12p10--12--12p10--12--14--14/15--17--17h19--17------17--
B|-------------10/12---------12--10--6b5--5--------------------------------------------------20------
G|---------------------------------------------------------------------------------------------------
D|---------------------------------------------------------------------------------------------------
A|---------------------------------------------------------------------------------------------------
E|--0---------------------0---------------0----------------------------------------------------------

Stave 2:

E|-------------------------------------------------------------0-
B|--20--19--20--19------17---------------------------7b7-------0/
G|------------------19----------------7-----9--7----------9\7--0-
D|-------------------------------7/9-----9--------9------------2-
A|--------------------------5/7--------------------------------2-
E|-------------------------------------------------------------0-

http://www.guitartabcreator.com
Guitar Tab Creator is intended to store guitar tab created through the tool. It currently does not support in-line text editing. Any text you place in here will be lost. If you need to comment on your tab, please use the "Tab Notes" section located below.