Sound will begin in 5 seconds

SpaceHog - In the meantime

01234567891011121314151617181920212223
E
B
G
D
A
E
B
0 1 2 3 4 5 6 7 8 9 10 11 12 13 14 15 16 17 18 19 20 21 22 23
Song Science #1: How Pros Use 6 Chords to Write Hit Songs
(/) Slide Up  (\) Slide Down  (h) Hammer On  (p) Pull Off  (b) Bend (r) Release (v) Vibrato

Stave 1:

G|-----------------------------------------------------------------------------------
D|-----------------------------------------------------0--12--14--12--0--------------
A|------------11--12--13--14---------------------------------------------12--14--12--
E|--0--0--12------------------11--12--13-----14--14/2--------------------------------

Stave 2:

G|---------------------------------------------------------------------------------|--
D|--12--12--12--12----------------------------------12h14--14--14--14--14--14--14--|--
A|------------------12--12--12--12-------------------------------------------------|--
E|----------------------------------12--12--12--12---------------------------------|--

Stave 3:

G|-----------------7---------------------------------|----------------------------------------|--
D|--------7-----------------4------------------------|--------7--------5-----4--4--4--4--4h5--|--
A|-----------5--5--------------2h3--2h3--2--0--------|----------------------------------------|--
E|--5--5--------------2--2---------------------2--0--|--5--5-----3--3-----2-------------------|--

Stave 4:

G|-----------------------------------------------------------------------------------------------------
D|--------------------------------4--4--5--5--7--7--------5--------4--------12h14--14--14--14--14--14--
A|--3--3--3--3--3--3--3--3--5--5-----------------------------------------------------------------------
E|--------------------------------------------------3--3-----2--2-----0--0-----------------------------

Stave 5:

G|----------------5-----------5-----------------------------------------------------------------------
D|--12--12--------------------------------1--1--2--2--4--4----------------------------14--13--12--11--
A|----------3--3-----3--3--3-----3--2--2--------------------------------------------------------------
E|----------------------------------------------------------0--0--4--4--7--7--12--12------------------

Stave 6:

G|------------------
D|--10--9--8-----7--
A|------------------
E|------------------

http://www.guitartabcreator.com
Guitar Tab Creator is intended to store guitar tab created through the tool. It currently does not support in-line text editing. Any text you place in here will be lost. If you need to comment on your tab, please use the "Tab Notes" section located below.