Sound will begin in 5 seconds

CCWLI 2

01234567891011121314151617181920212223
E
B
G
D
A
E
B
0 1 2 3 4 5 6 7 8 9 10 11 12 13 14 15 16 17 18 19 20 21 22 23
Song Science #1: How Pros Use 6 Chords to Write Hit Songs
(/) Slide Up  (\) Slide Down  (h) Hammer On  (p) Pull Off  (b) Bend (r) Release (v) Vibrato

Stave 1:

E|--0--0--0--0--0--0--0--0--
B|--------------------------
G|--------------------------
D|--------------------------
A|--------------------------
E|--------------------------

Stave 2:

E|--0--0--0--0--0--0--0--0--
B|--------------------------
G|--------------------------
D|--------------------------
A|--------------------------
E|--------------------------

Stave 3:

E|--0--0--0--0--0--0--0--0--
B|--------------------------
G|--------------------------
D|--------------------------
A|--------------------------
E|--------------------------

Stave 4:

E|--7--5--------------------
B|--------------7--5-----3--
G|--------------------------
D|--------------------------
A|--------------------------
E|--------------------------

Stave 5:

E|-------------------------------------
B|--10b12-----10b12--7--8--------------
G|----------------------------9--7-----
D|-------------------------------------
A|-------------------------------------
E|-------------------------------------

Stave 6:

E|--------------------------
B|--------------------------
G|--9--7-----------7--9--7--
D|--------9--7--9-----------
A|--------------------------
E|--------------------------

Stave 7:

E|-----------------------------
B|-----------------------------
G|--9--------11-----11b12--11--
D|-----------------------------
A|-----------------------------
E|-----------------------------

Stave 8:

E|--------------------------
B|--------------------------
G|--11--12--9--11--7--------
D|--------------------------
A|--------------------------
E|--------------------------

Stave 9:

E|--17--15--14--15--14--
B|----------------------
G|----------------------
D|----------------------
A|----------------------
E|----------------------

Stave 10:

E|---------------------
B|--17--19--20-----15--
G|---------------------
D|---------------------
A|---------------------
E|---------------------

Stave 11:

E|--12--14-----14b15-----10--
B|---------------------------
G|---------------------------
D|---------------------------
A|---------------------------
E|---------------------------

Stave 12:

E|--17--15--14--15--14--12--14--12--10-----
B|-----------------------------------------
G|-----------------------------------------
D|-----------------------------------------
A|-----------------------------------------
E|-----------------------------------------

Stave 13:

E|--19-----17-----15-----14--
B|---------------------------
G|---------------------------
D|---------------------------
A|---------------------------
E|---------------------------

Stave 14:

E|--------------------------
B|--17-----17b19-----15-----
G|--------------------------
D|--------------------------
A|--------------------------
E|--------------------------

Stave 15:

E|---------------------------------------
B|--14--15--14--------15----------15-----
G|------------------------14--16---------
D|---------------------------------------
A|---------------------------------------
E|---------------------------------------

Stave 16:

E|--22-----21-----19--------17--19--
B|----------------------------------
G|----------------------------------
D|----------------------------------
A|----------------------------------
E|----------------------------------

Stave 17:

E|--15--17--14--15-----------
B|---------------------------
G|---------------------------
D|---------------------------
A|---------------------------
E|---------------------------

Stave 18:

E|--------------------
B|--17-----19-----15--
G|--------------------
D|--------------------
A|--------------------
E|--------------------

Stave 19:

E|---------------------
B|--10-----------------
G|------9b11-----7-----
D|---------------------
A|---------------------
E|---------------------

http://www.guitartabcreator.com
Guitar Tab Creator is intended to store guitar tab created through the tool. It currently does not support in-line text editing. Any text you place in here will be lost. If you need to comment on your tab, please use the "Tab Notes" section located below.