Sound will begin in 5 seconds

Wintergatan-Marble Machine

Chords
01234567891011121314151617181920212223
E
B
G
D
A
E
B
0 1 2 3 4 5 6 7 8 9 10 11 12 13 14 15 16 17 18 19 20 21 22 23
Song Science #1: How Pros Use 6 Chords to Write Hit Songs
(/) Slide Up  (\) Slide Down  (h) Hammer On  (p) Pull Off  (b) Bend (r) Release (v) Vibrato

Capo Fret 3

Stave 1:

E|--12--0---------------------------------10--0--7--7---------------------10--0--7--7------12-------------
B|---------12--12p10--8h10--10/12--8--10---------------10--8h10--7--8h10---------------10------12--10-----
G|--------------------------------------------------------------------------------------------------------
D|--------------------------------------------------------------------------------------------------------
A|--------------------------------------------------------------------------------------------------------
E|--------------------------------------------------------------------------------------------------------

Stave 2:

E|-------------------------------
B|--8h10------------8-----7--10--
G|--------9------9-----7---------
D|-----------10------------------
A|-------------------------------
E|-------------------------------

Stave 3:

E|------------------------------
B|--5--4--4\2-------------3-----
G|--0----------2--4--0h2--0--4--
D|------------------------------
A|------------------------------
E|--0-----0----0-----0----0-----

Stave 4:

E|--
B|--
G|--
D|--
A|--
E|--

Stave 5:

E|--
B|--
G|--
D|--
A|--
E|--

Stave 6:

E|--
B|--
G|--
D|--
A|--
E|--

http://www.guitartabcreator.com
Guitar Tab Creator is intended to store guitar tab created through the tool. It currently does not support in-line text editing. Any text you place in here will be lost. If you need to comment on your tab, please use the "Tab Notes" section located below.