Chopin's Ballade No. 1

01234567891011121314151617181920212223
E
B
G
D
A
E
B
0 1 2 3 4 5 6 7 8 9 10 11 12 13 14 15 16 17 18 19 20 21 22 23
(/) Slide Up  (\) Slide Down  (h) Hammer On  (p) Pull Off  (b) Bend (r) Release (v) Vibrato

Stave 1:

Eb|-----------------------------------------5--7--9--4--7--7--5--4--------3-----------3--4--3--2--3--6--4-----------------------2--------------
Bb|-----------------------------------2--------------------------------------------------------------------5-----5-----------4-----5--4-----4--
Gb|-----------------------------2--4-----2-----------------------------------------------------------------------------------------------------
Db|--------------------------------------------------------------------------------------------------------------------------------------------
Ab|--4--------------0--2--4--0-----------------------------------------------------------------------------------------------------------------
Eb|--0-----------0-----------------------------------------------------------------------------------------------------------------------------

Stave 2:

Eb|--4--------------2------------------------------------------------------------------------------------------------------------------------------
Bb|--5--------------3------------------------------------------------------------------------------------------------------------3--3--------------
Gb|--6--------------4-----------------------4--3-------------------8-----------6-----------------------4--3----------------------------------8--8--
Db|--6-----------6--4--------------------4--------4/6-----------------6--6--------5--5--------------4--------4/6--------------3-----------5--------
Ab|--4--------------2-----------4-----6-------------------6--6--------6--6--------4--4--------4--6-------------------6--6--------1--1--------6--6--
Eb|-------------------------------------------------------4--4--------7--7--------6--6-------------------------------4--4--------------------------

Stave 3:

Eb|-----------------------------------------------------------------------12--11-----10--10--------------11-----------9-----------------------------
Bb|----------------------------------9-----------7--------------------11------------------------7--7---------8--8--------9--9-----------------------
Gb|-----------4--3----------------------------------6--6--------9/11----------------------------9--9---------9--9--------9--9-----------------------
Db|--------4--------4/6-----------------6--6--------4--4----------------------------------------8--8---------------------8--8-----------------------
Ab|--4--6-------------------6--6--------8--8--------4--4--------------------------------------------------------------------------------------------
Eb|-------------------------4--4--------------------------------------------------------------------------------------------------------------------

Stave 4:

Eb|--------------------------------------------------------------------------------------------------------------------------------------------
Bb|------------------------------------------------------------------------------------------------3--3----------------------------------------
Gb|-----------4--3-------------------8-----------6-----------------------4--3----------------------0--0--------8--8-----------------4--3-------
Db|--------4--------4/6-----------------6--6--------5--5--------------4--------4/6--------------3-----------5--------------------4--------4/6--
Ab|--4--6-------------------6--6--------6--6--------4--4--------4--6-------------------6--6--------1--1--------6--6--------4--6----------------
Eb|-------------------------4--4--------7--7--------6--6-------------------------------4--4----------------------------------------------------

Stave 5:

Eb|---------------------------------------------------------------------------------------------------------------------------------
Bb|--------------9-----------9------------------------------------------------------------------------------------------------------
Gb|-----------------8--8--------6--6-----8-----------6--------------8--8----------------------8----------------6--------------------
Db|-----------------6--6--------6--6--------6--6--------6--6-----6-----------6----------6----------------6----------------6---------
Ab|-----6--6--------9--9--------7--7--------6--6--------4--4--------6--6-----3/4--6--4--------5/6--7--6--------6h7--9--7-----6/7/8--
Eb|-----4--4--------------------------------7--7--------0--0--------7--7------------------------------------------------------------

Stave 6:

Eb|-----------------------------------------------------------------------------------------------------------------------------------
Bb|------------------------------------------------------------------------------------------4p2--1--2--4--5--5--------4--------------
Gb|---------------------------------------------------------------------------8--4--4--0----------------------------------------6-----
Db|--4-----4-----4-----4-----4-----4-----4-----4-----4-----4--2/3/4--------------3--4-------------------4--5--6-----------------------
Ab|-----8-----8-----8-----8-----8-----8-----8-----8-----8---------------6--6----------------------------------------------------6-----
Eb|-----------------------------------------------------------------------------------------------------------------------------------

Stave 7:

Eb|----------------------------------------------------------------------
Bb|----------------------------------------------------------------------
Gb|----------------6--------6-----4-----3-----3-----3--3--3--3--3--3--3--
Db|--9p8--7--8--9-----------6-----6-----6-----5--------3--3--3--3--3--3--
Ab|-------------------------7-----7-----4-----6--------------------------
Eb|----------------------------------------------------1-----------------

							http://www.guitartabcreator.com
Chords

Instruments
{"strings":[[[".","_","_","_",".",".",".",".",".",".",".",".",".",5,7,9,4,7,7,5,4,"_","_",3,"_","_","_",3,4,3,2,3,6,4,".","_",".","_","_","_",".",2,".",".","_","."],[".","_","_","_",".",".",".",".",".",".",".",2,".",".",".",".",".",".",".",".",".","_","_",".","_","_","_",".",".",".",".",".",".",".",5,"_",5,"_","_","_",4,".",5,4,"_",4],[".","_","_","_",".",".",".",".",".",2,4,".",2,".",".",".",".",".",".",".",".","_","_",".","_","_","_",".",".",".",".",".",".",".",".","_",".","_","_","_",".",".",".",".","_","."],[".","_","_","_",".",".",".",".",".",".",".",".",".",".",".",".",".",".",".",".",".","_","_",".","_","_","_",".",".",".",".",".",".",".",".","_",".","_","_","_",".",".",".",".","_","."],[4,"_","_","_",".",0,2,4,0,".",".",".",".",".",".",".",".",".",".",".",".","_","_",".","_","_","_",".",".",".",".",".",".",".",".","_",".","_","_","_",".",".",".",".","_","."],[0,"_","_","_",0,".",".",".",".",".",".",".",".",".",".",".",".",".",".",".",".","_","_",".","_","_","_",".",".",".",".",".",".",".",".","_",".","_","_","_",".",".",".",".","_","."]],[[4,"_","_","_",".",2,"_","_","_",".","_",".",".",".",".",".",".",".","_",".",".","_",".",".",".","_",".",".",".","_","_",".",".",".",".",".",".",".",".","_",".",".","_",".",".",".","_",".",".","."],[5,"_","_","_",".",3,"_","_","_",".","_",".",".",".",".",".",".",".","_",".",".","_",".",".",".","_",".",".",".","_","_",".",".",".",".",".",".",".",".","_",".",".","_",".",3,3,"_",".",".","."],[6,"_","_","_",".",4,"_","_","_",".","_",".",".",4,3,".",".",".","_",".",".","_",8,".",".","_",6,".",".","_","_",".",".",".",4,3,".",".",".","_",".",".","_",".",".",".","_",".",8,8],[6,"_","_","_",6,4,"_","_","_",".","_",".",4,".",".",4,"/",6,"_",".",".","_",".",6,6,"_",".",5,5,"_","_",".",".",4,".",".",4,"/",6,"_",".",".","_",3,".",".","_",5,".","."],[4,"_","_","_",".",2,"_","_","_",4,"_",6,".",".",".",".",".",".","_",6,6,"_",".",6,6,"_",".",4,4,"_","_",4,6,".",".",".",".",".",".","_",6,6,"_",".",1,1,"_",".",6,6],[".","_","_","_",".",".","_","_","_",".","_",".",".",".",".",".",".",".","_",4,4,"_",".",7,7,"_",".",6,6,"_","_",".",".",".",".",".",".",".",".","_",4,4,"_",".",".",".","_",".",".","."]],[[".",".",".",".",".",".",".",".","_",".",".","_",".",".",".","_",".",".",".","_","_",".",".",".",".",12,11,"_",10,10,"_",".",".","_",11,".",".","_",9,".",".","_","_","_","_","_","_","_"],[".",".",".",".",".",".",".",".","_",".",".","_",9,".",".","_",7,".",".","_","_",".",".",".",11,".",".","_",".",".","_",7,7,"_",".",8,8,"_",".",9,9,"_","_","_","_","_","_","_"],[".",".",".",4,3,".",".",".","_",".",".","_",".",".",".","_",".",6,6,"_","_",9,"/",11,".",".",".","_",".",".","_",9,9,"_",".",9,9,"_",".",9,9,"_","_","_","_","_","_","_"],[".",".",4,".",".",4,"/",6,"_",".",".","_",".",6,6,"_",".",4,4,"_","_",".",".",".",".",".",".","_",".",".","_",8,8,"_",".",".",".","_",".",8,8,"_","_","_","_","_","_","_"],[4,6,".",".",".",".",".",".","_",6,6,"_",".",8,8,"_",".",4,4,"_","_",".",".",".",".",".",".","_",".",".","_",".",".","_",".",".",".","_",".",".",".","_","_","_","_","_","_","_"],[".",".",".",".",".",".",".",".","_",4,4,"_",".",".",".","_",".",".",".","_","_",".",".",".",".",".",".","_",".",".","_",".",".","_",".",".",".","_",".",".",".","_","_","_","_","_","_","_"]],[[".",".",".",".",".",".",".",".","_",".",".","_",".",".",".","_",".",".",".","_","_",".",".",".",".",".",".",".",".","_",".",".","_",".",".",".","_",".",".",".","_","_",".",".",".",".",".",".",".","."],[".",".",".",".",".",".",".",".","_",".",".","_",".",".",".","_",".",".",".","_","_",".",".",".",".",".",".",".",".","_",".",".","_",".",3,3,"_",".",".",".","_","_",".",".",".",".",".",".",".","."],[".",".",".",4,3,".",".",".","_",".",".","_",8,".",".","_",6,".",".","_","_",".",".",".",4,3,".",".",".","_",".",".","_",".",0,0,"_",".",8,8,"_","_",".",".",".",4,3,".",".","."],[".",".",4,".",".",4,"/",6,"_",".",".","_",".",6,6,"_",".",5,5,"_","_",".",".",4,".",".",4,"/",6,"_",".",".","_",3,".",".","_",5,".",".","_","_",".",".",4,".",".",4,"/",6],[4,6,".",".",".",".",".",".","_",6,6,"_",".",6,6,"_",".",4,4,"_","_",4,6,".",".",".",".",".",".","_",6,6,"_",".",1,1,"_",".",6,6,"_","_",4,6,".",".",".",".",".","."],[".",".",".",".",".",".",".",".","_",4,4,"_",".",7,7,"_",".",6,6,"_","_",".",".",".",".",".",".",".",".","_",4,4,"_",".",".",".","_",".",".",".","_","_",".",".",".",".",".",".",".","."]],[["_",".",".","_",".",".",".","_",".",".",".","_",".",".",".","_",".",".",".","_",".",".",".","_",".",".",".",".",".",".","_",".",".",".",".",".",".","_",".",".",".",".",".",".",".",".",".",".","."],["_",".",".","_",9,".",".","_",9,".",".","_",".",".",".","_",".",".",".","_",".",".",".","_",".",".",".",".",".",".","_",".",".",".",".",".",".","_",".",".",".",".",".",".",".",".",".",".","."],["_",".",".","_",".",8,8,"_",".",6,6,"_",8,".",".","_",6,".",".","_",".",8,8,"_",".",".",".",".",".",".","_",8,".",".",".",".",".","_",6,".",".",".",".",".",".",".",".",".","."],["_",".",".","_",".",6,6,"_",".",6,6,"_",".",6,6,"_",".",6,6,"_",6,".",".","_",6,".",".",".",".",6,"_",".",".",".",".",".",6,"_",".",".",".",".",".",6,".",".",".",".","."],["_",6,6,"_",".",9,9,"_",".",7,7,"_",".",6,6,"_",".",4,4,"_",".",6,6,"_",3,"/",4,6,4,".","_",5,"/",6,7,6,".","_",6,"h",7,9,7,".",6,"/",7,"/",8],["_",4,4,"_",".",".",".","_",".",".",".","_",".",7,7,"_",".",0,0,"_",".",7,7,"_",".",".",".",".",".",".","_",".",".",".",".",".",".","_",".",".",".",".",".",".",".",".",".",".","."]],[[".",".",".",".",".",".",".",".",".",".",".",".",".",".",".",".",".",".",".",".",".",".",".",".","_",".",".",".",".",".",".","_",".",".",".",".",".",".",".",".","_","_",".","_","_",".","_"],[".",".",".",".",".",".",".",".",".",".",".",".",".",".",".",".",".",".",".",".",".",".",".",".","_",".",".",".",".",".",".","_",4,"p",2,1,2,4,5,5,"_","_",4,"_","_",".","_"],[".",".",".",".",".",".",".",".",".",".",".",".",".",".",".",".",".",".",".",".",".",".",".",".","_",".",".",8,4,4,0,"_",".",".",".",".",".",".",".",".","_","_",".","_","_",6,"_"],[4,".",4,".",4,".",4,".",4,".",4,".",4,".",4,".",4,".",4,2,"/",3,"/",4,"_",".",".",".",3,4,".","_",".",".",".",".",".",4,5,6,"_","_",".","_","_",".","_"],[".",8,".",8,".",8,".",8,".",8,".",8,".",8,".",8,".",8,".",".",".",".",".",".","_",6,6,".",".",".",".","_",".",".",".",".",".",".",".",".","_","_",".","_","_",6,"_"],[".",".",".",".",".",".",".",".",".",".",".",".",".",".",".",".",".",".",".",".",".",".",".",".","_",".",".",".",".",".",".","_",".",".",".",".",".",".",".",".","_","_",".","_","_",".","_"]],[[".",".",".",".",".",".",".","_","_",".","_",".","_",".","_",".","_",".",".",".",".",".",".","."],[".",".",".",".",".",".",".","_","_",".","_",".","_",".","_",".","_",".",".",".",".",".",".","."],[".",".",".",".",".",".",6,"_","_",6,"_",4,"_",3,"_",3,"_",3,3,3,3,3,3,3],[9,"p",8,7,8,9,".","_","_",6,"_",6,"_",6,"_",5,"_",".",3,3,3,3,3,3],[".",".",".",".",".",".",".","_","_",7,"_",7,"_",4,"_",6,"_",".",".",".",".",".",".","."],[".",".",".",".",".",".",".","_","_",".","_",".","_",".","_",".","_",".",1,".",".",".",".","."]]],"numberofstrings":6,"notes":["DsEb","AsBb","FsGb","CsDb","GsAb","DsEb"],"capo":0,"stringnotes":["Eb3","Bb2","Gb2","Db2","Ab1","Eb1"],"comments":["Stave 1:","Stave 2:","Stave 3:","Stave 4:","Stave 5:","Stave 6:","Stave 7:"],"timing":[["W","W",null,null,"W","W","W","W","W","W","W","W","W","W","W","W","W","W","W","W",null,null,null,"W",null,null,null,"W","W","W","W","W","W","W","W",null,"W",null,null,null,"W","W","W","W",null,"W"],["W",null,null,null,"W","W",null,null,null,"W",null,"W","W","W","W","W",null,"W",null,"W","W",null,"W","W","W",null,"W","W","W",null,null,"W","W","W","W","W","W",null,"W",null,"W","W",null,"W","W","W",null,"W","W","W"],["W","W","W","W","W","W",null,"W",null,"W","W",null,"W","W","W",null,"W","W","W",null,null,"W",null,"W","W","W","W",null,"W","W",null,"W","W",null,"W","W","W",null,"W","W","W",null,"W","W","W","W","W","W",null,"W"],["W","W","W","W","W","W",null,"W",null,"W","W","W","W","W","W",null,"W","W","W",null,null,"W","W","W","W","W","W",null,"W",null,"W","W",null,"W","W","W",null,"W","W","W",null,null,"W","W","W","W","W","W",null,"W"],["W","W","W","W","W","W","W",null,"W","W","W",null,"W","W","W",null,"W","W","W",null,"W","W","W","W","W",null,"W","W","W","W",null,"W",null,"W","W","W","W",null,"W",null,"W","W","W","W","W",null,"W",null,"W","W","W"],["W","W","W","W","W","W","W","W","W","W","W","W","W","W","W","W","W","W","W","W",null,"W",null,"W",null,"W","W","W","W","W","W",null,"W",null,"W","W","W","W","W","W",null,null,"W",null,null,"W",null,"W",null,"W","W"],["W",null,"W","W","W","W","W",null,"W","W",null,"W",null,"W",null,"W",null,"W","W","W","W","W","W","W"]],"timingvisible":false,"tabcounter":24,"stave":6,"totalstaves":7,"instrument":"6guitar","selectedtuning":"Half Step Down","version":"13"}

Member for

4 months 1 week
Submitted by evansurfer on Fri, 2020-09-11 14:43