frog-it's fingerstyle hymn 1

Chords

01234567891011121314151617181920212223
E
B
G
D
A
E
B
0 1 2 3 4 5 6 7 8 9 10 11 12 13 14 15 16 17 18 19 20 21 22 23
(/) Slide Up  (\) Slide Down  (h) Hammer On  (p) Pull Off  (b) Bend (r) Release (v) Vibrato

BPM : 113.5

E|-----0-----------------|-----0-----------------|-----0-----------------|-----0-----------0h1--0-----|--
B|-----------3--------1--|-----------3--------1--|-----------1--------0--|-----------3-------------1--|--
G|--------2--------------|--------2--------------|--------2--------------|--------2-------------------|--
D|--3--------------------|--3--------------------|--2--------------------|--0-------------------------|--
A|-----------------------|-----------------------|-----------------------|----------------------------|--
E|-----------------------|-----------------------|-----------------------|----------------------------|--

Chord Shapes:

E|--0--------------------|--0--------------------|--0--------------------|--0--------------------------|--
B|--3--------------------|--3--------------------|--1--------------------|--3--------------------------|--
G|--2--------------------|--2--------------------|--2--------------------|--2--------------------------|--
D|--3--------------------|--3--------------------|--2--------------------|--0--------------------------|--
A|--x--------------------|--x--------------------|--x--------------------|--x--------------------------|--
E|--x--------------------|--x--------------------|--x--------------------|--x--------------------------|--

							http://www.guitartabcreator.com
Tab Notes

Instruments
{"title":"frog-it's fingerstyle hymn 1","strings":[[[".",0,".",".","_","_",".","|",".",0,".",".","_","_",".","|",".",0,".",".","_","_",".","|",".",0,".",".","_",0,"h",1,0,".","|"],[".",".",".",3,"_","_",1,"|",".",".",".",3,"_","_",1,"|",".",".",".",1,"_","_",0,"|",".",".",".",3,"_",".",".",".",".",1,"|"],[".",".",2,".","_","_",".","|",".",".",2,".","_","_",".","|",".",".",2,".","_","_",".","|",".",".",2,".","_",".",".",".",".",".","|"],[3,".",".",".","_","_",".","|",3,".",".",".","_","_",".","|",2,".",".",".","_","_",".","|",0,".",".",".","_",".",".",".",".",".","|"],[".",".",".",".","_","_",".","|",".",".",".",".","_","_",".","|",".",".",".",".","_","_",".","|",".",".",".",".","_",".",".",".",".",".","|"],[".",".",".",".","_","_",".","|",".",".",".",".","_","_",".","|",".",".",".",".","_","_",".","|",".",".",".",".","_",".",".",".",".",".","|"]],[[0,"_","_","_","_","_","_","|",0,"_","_","_","_","_","_","|",0,"_","_","_","_","_","_","|",0,"_","_","_","_","_","_","_","_","|"],[3,"_","_","_","_","_","_","|",3,"_","_","_","_","_","_","|",1,"_","_","_","_","_","_","|",3,"_","_","_","_","_","_","_","_","|"],[2,"_","_","_","_","_","_","|",2,"_","_","_","_","_","_","|",2,"_","_","_","_","_","_","|",2,"_","_","_","_","_","_","_","_","|"],[3,"_","_","_","_","_","_","|",3,"_","_","_","_","_","_","|",2,"_","_","_","_","_","_","|",0,"_","_","_","_","_","_","_","_","|"],["x0","_","_","_","_","_","_","|","x0","_","_","_","_","_","_","|","x0","_","_","_","_","_","_","|","x0","_","_","_","_","_","_","_","_","|"],["x0","_","_","_","_","_","_","|","x0","_","_","_","_","_","_","|","x0","_","_","_","_","_","_","|","x0","_","_","_","_","_","_","_","_","|"]]],"numberofstrings":6,"notes":["E","B","G","D","A","E","B"],"capo":0,"stringnotes":["E4","B3","G3","D3","A2","E2"],"comments":["BPM : 113.5","Chord Shapes:"],"timing":[["E","E","E","E",null,null,"E",null,"E","E","E","E","E",null,"E","E","E","E","E","E","E","E","E",null,"E","E","E","E","E","S","E","S","S","S","S","E","E"],["E",null,null,null,null,null,"E","W","W",null,null,null,null,null,null,null,"E",null,null,null,null,null,null,null,"E"]],"timingvisible":false,"tabcounter":34,"stave":1,"totalstaves":2,"instrument":"6guitar","selectedtuning":"6_standard","version":"13"}

Member for

4 years 4 months
Submitted by evanmalz on Sun, 2020-03-29 16:08