Sound will begin in 5 seconds

Reagan's Song

Chords
01234567891011121314151617181920212223
E
B
G
D
A
E
B
0 1 2 3 4 5 6 7 8 9 10 11 12 13 14 15 16 17 18 19 20 21 22 23
Song Science #1: How Pros Use 6 Chords to Write Hit Songs
(/) Slide Up  (\) Slide Down  (h) Hammer On  (p) Pull Off  (b) Bend (r) Release (v) Vibrato

Stave 1:

D|----------------------------------------------------------------------------------------------------
A|----------------------------------------------------------------------------------------------------
F|--2--x-------------------------------------------5--7b10r7--7--5-----5--7--5------------------------
C|--2--x--------5--5h7p5-----5h7p5-----------5--7-------------------7-----------5v--5h7p5-----7--5----
G|--0--0--5--7------------7---------7--5--7------------------------------------------------7-----7b9--
D|----------------------------------------------------------------------------------------------------

Stave 2:

D|--------------------------------------------------------------------------
A|--------------------------------------------------------------------------
F|--------------------------------------------------------------2--2--2--2--
C|--------------------------------------------------------------2--2--2--2--
G|--7--5--5h7p5-------------------------------------------------0--0--0--0--
D|---------------7v--5h7--7/9--3h5--5/7/9/10--9--7--7--5--3--2--0-----------

Stave 3:

D|--
A|--
F|--
C|--
G|--
D|--

http://www.guitartabcreator.com
Guitar Tab Creator is intended to store guitar tab created through the tool. It currently does not support in-line text editing. Any text you place in here will be lost. If you need to comment on your tab, please use the "Tab Notes" section located below.