Sound will begin in 5 seconds

Punkish Solo 2

Chords
01234567891011121314151617181920212223
E
B
G
D
A
E
B
0 1 2 3 4 5 6 7 8 9 10 11 12 13 14 15 16 17 18 19 20 21 22 23
Song Science #1: How Pros Use 6 Chords to Write Hit Songs
(/) Slide Up  (\) Slide Down  (h) Hammer On  (p) Pull Off  (b) Bend (r) Release (v) Vibrato

Stave 1:

E|-------------------------------------------------------------------------------------------------
B|-------------------------------------15h17p15h17-------15-15-15-15-15----15-15-15-15-15----15----
G|-------15h17-------15h17-------15h17-------------17b19-------------17b19-------------17b19-17b19-
D|-15h17-------15h17-------15h17-------------------------------------------------------------------
A|-------------------------------------------------------------------------------------------------
E|-------------------------------------------------------------------------------------------------

Stave 2:

E|----------------------------------------
B|-------16h18-------16h19-------18h21-22-
G|-15h17-------16h18-------17h19----------
D|----------------------------------------
A|----------------------------------------
E|----------------------------------------

Stave 3:

E|----------------------------22b23-22b23------------------------------------------------------------------
B|-10/18-18-18-18-15h17-16h18------------------------------------------------------------------------------
G|---------------------------------------------------------------------------------------------------------
D|----------------------------------------10h12-11h13-12h14-13h15-14h16-15h17-17\1-13h15-14h16-15h17-16h18-
A|---------------------------------------------------------------------------------------------------------
E|---------------------------------------------------------------------------------------------------------

Stave 4:

E|----------------------------------------------------------------------------------------------
B|----------------------------------------------------------------------------------------------
G|------------------------------------------------------------------------15-15-15-15-15-14-13v-
D|-17h19-18h20-19h21-21\1-------15----------16----------17----------18--------------------------
A|------------------------15h17----17-16h18----18-17h19----19-18h20----20-----------------------
E|----------------------------------------------------------------------------------------------

Stave 5:

E|---------------------------------------------------------------
B|---------------------------------------------------------------
G|---------------------------------------------------------------
D|-12-12-12-12-12b13p0-12p0-10-11-11p0-5h6-6-6h7-7-5h6p5h6p5p4p0-
A|---------------------------------------------------------------
E|---------------------------------------------------------------

http://www.guitartabcreator.com
Guitar Tab Creator is intended to store guitar tab created through the tool. It currently does not support in-line text editing. Any text you place in here will be lost. If you need to comment on your tab, please use the "Tab Notes" section located below.