Sound will begin in 5 seconds

Punkish Solo 1

Chords
01234567891011121314151617181920212223
E
B
G
D
A
E
B
0 1 2 3 4 5 6 7 8 9 10 11 12 13 14 15 16 17 18 19 20 21 22 23
Song Science #1: How Pros Use 6 Chords to Write Hit Songs
(/) Slide Up  (\) Slide Down  (h) Hammer On  (p) Pull Off  (b) Bend (r) Release (v) Vibrato

Stave 1:

E|--------------------------------------------------------------------------
B|--------------------------------------------------------------------------
G|--------------------------------------------------------------------------
D|---------------------------------------------------------------10---------
A|-12b12b12-10h12p10h12p10------------12b12b12-10h12p10h12p10---------------
E|-------------------------11-10-9-10-------------------------11----11-10-9-

Stave 2:

E|-------------------------------------------------------------------
B|----------------------------------------------------10-10h12p10----
G|----------------------------------10----------10----------------12-
D|-------------------------12-10-10----12-11-12----12----------------
A|-12b12b12-10h12p10h12p10-------------------------------------------
E|-------------------------------------------------------------------

Stave 3:

E|-----------------------------------------------------
B|-10----10-------------12----10----10----9--8-7-5-----
G|-12b13-12b13-13-12-13----13-12b13-12b13-10-9-----8-7-
D|-----------------------------------------------------
A|-----------------------------------------------------
E|-----------------------------------------------------

Stave 4:

E|-------------------------------------------17b18-18b19-17h20p17h19p17h20p17-
B|-10----10-------------------15-17-17b19r17----------------------------------
G|-12b13-12b13----------15----------------------------------------------------
D|-------------17-15-17----17-------------------------------------------------
A|----------------------------------------------------------------------------
E|----------------------------------------------------------------------------

http://www.guitartabcreator.com
Guitar Tab Creator is intended to store guitar tab created through the tool. It currently does not support in-line text editing. Any text you place in here will be lost. If you need to comment on your tab, please use the "Tab Notes" section located below.