thats the way it is

01234567891011121314151617181920212223
E
B
G
D
A
E
B
0 1 2 3 4 5 6 7 8 9 10 11 12 13 14 15 16 17 18 19 20 21 22 23
(/) Slide Up  (\) Slide Down  (h) Hammer On  (p) Pull Off  (b) Bend (r) Release (v) Vibrato

Stave 1:

E|--------------------------------------------------------------------------------
B|--------------------------------------------------------------------------------
G|--3--3--3--3--1--------------3--3--3--1--------------------------------------1--
D|-----------------4--3--------------------4--3-----1-----------4--4--4--4--------
A|--------------------------------------------------------------------------4-----
E|--------------------------------------------------------------------------------

Stave 2:

E|--------------------------------------------------------------------------------------
B|--------------------------------------------------------------------------------------
G|--3--3--3-----1--------------------------3--3--3--1--1-----------------3--1-----------
D|-----------------4--3--1--------------------------------------------1--------4--3--1--
A|--------------------------------------4-----------------------------------------------
E|--------------------------------------------------------------------------------------

Stave 3:

E|----------------------------------------------------------------------------------------------------------
B|----------------------------------------------------------------------------------------------------------
G|-----------------1--------------3--1---------------------------3--3--3--1--1---------------3--1-----------
D|-----4--4--4--------------------------4--3--1----------------------------------------------------4--3--1--
A|--4-----------4-------------------------------------------------------------------------------------------
E|----------------------------------------------------------------------------------------------------------

Stave 4:

E|-----2-----------------------4-----1--------------6-----2--------------------------
B|--2-----------2--------4--2-----2-----------4--7-----4--------------4-----------4--
G|--------3--3-----------------------------------------------------4-----4-----4-----
D|--------------------------------------------------------------------------4--------
A|-----------------------------------------------------------------------------------
E|-----------------------------------------------------------------------------------

Stave 5:

E|-----------2-----------1--4-----1--------------6-----2--------------2--------
B|--------2-----3-----2--------2-----------4--7-----4--------------4--------4--
G|-----3--------------------------------------------------------4--------4-----
D|--4--------------------------------------------------------------------------
A|-----------------------------------------------------------------------------
E|-----------------------------------------------------------------------------

Stave 6:

E|--------------------------------------------------------------------------------
B|--------------------------------------------------------------------------------
G|--3--3--3--3--3--1-----1--------------3--1-----------------------------------1--
D|--------------------4-----------------------4--3--1-----------4--4--4--4--------
A|--------------------------------------------------------------------------4-----
E|--------------------------------------------------------------------------------

Stave 7:

E|--------------------------------------------------------------------------------------------
B|--------------------------------------------------------------------------------------------
G|--3--1--------------------------3--3--3--1--1--------------------------------3--1-----------
D|--------4--3--1--------------------------------------------------------------------4--3--1--
A|--------------------------------------------------------------------------------------------
E|--------------------------------------------------------------------------------------------

							http://www.guitartabcreator.com
Chords

Instruments
{"strings":[[[".",".",".",".",".",".",".","_","_",".",".",".",".",".",".","_",".","_","_","_",".",".",".",".",".","."],[".",".",".",".",".",".",".","_","_",".",".",".",".",".",".","_",".","_","_","_",".",".",".",".",".","."],[3,3,3,3,1,".",".","_","_",3,3,3,1,".",".","_",".","_","_","_",".",".",".",".",".",1],[".",".",".",".",".",4,3,"_","_",".",".",".",".",4,3,"_",1,"_","_","_",4,4,4,4,".","."],[".",".",".",".",".",".",".","_","_",".",".",".",".",".",".","_",".","_","_","_",".",".",".",".",4,"."],[".",".",".",".",".",".",".","_","_",".",".",".",".",".",".","_",".","_","_","_",".",".",".",".",".","."]],[[".",".",".","_",".",".",".",".","_","_","_","_",".",".",".",".",".",".","_","_","_","_",".",".",".",".",".","."],[".",".",".","_",".",".",".",".","_","_","_","_",".",".",".",".",".",".","_","_","_","_",".",".",".",".",".","."],[3,3,3,"_",1,".",".",".","_","_","_","_",".",3,3,3,1,1,"_","_","_","_",".",3,1,".",".","."],[".",".",".","_",".",4,3,1,"_","_","_","_",".",".",".",".",".",".","_","_","_","_",1,".",".",4,3,1],[".",".",".","_",".",".",".",".","_","_","_","_",4,".",".",".",".",".","_","_","_","_",".",".",".",".",".","."],[".",".",".","_",".",".",".",".","_","_","_","_",".",".",".",".",".",".","_","_","_","_",".",".",".",".",".","."]],[[".",".",".",".",".",".","_","_","_","_",".",".",".",".",".","_","_","_","_","_","_",".",".",".",".",".","_","_","_","_","_",".",".",".",".","."],[".",".",".",".",".",".","_","_","_","_",".",".",".",".",".","_","_","_","_","_","_",".",".",".",".",".","_","_","_","_","_",".",".",".",".","."],[".",".",".",".",".",1,"_","_","_","_",3,1,".",".",".","_","_","_","_","_","_",3,3,3,1,1,"_","_","_","_","_",3,1,".",".","."],[".",4,4,4,".",".","_","_","_","_",".",".",4,3,1,"_","_","_","_","_","_",".",".",".",".",".","_","_","_","_","_",".",".",4,3,1],[4,".",".",".",4,".","_","_","_","_",".",".",".",".",".","_","_","_","_","_","_",".",".",".",".",".","_","_","_","_","_",".",".",".",".","."],[".",".",".",".",".",".","_","_","_","_",".",".",".",".",".","_","_","_","_","_","_",".",".",".",".",".","_","_","_","_","_",".",".",".",".","."]],[[".",2,".",".",".","_","_",".",".",4,".",1,"_","_",".",".",6,".",2,"_","_",".",".",".",".",".","."],[2,".",".",".",2,"_","_",4,2,".",2,".","_","_",4,7,".",4,".","_","_",".",4,".",".",".",4],[".",".",3,3,".","_","_",".",".",".",".",".","_","_",".",".",".",".",".","_","_",4,".",4,".",4,"."],[".",".",".",".",".","_","_",".",".",".",".",".","_","_",".",".",".",".",".","_","_",".",".",".",4,".","."],[".",".",".",".",".","_","_",".",".",".",".",".","_","_",".",".",".",".",".","_","_",".",".",".",".",".","."],[".",".",".",".",".","_","_",".",".",".",".",".","_","_",".",".",".",".",".","_","_",".",".",".",".",".","."]],[[".",".",".",2,".","_",".",1,4,".",1,"_","_",".",".",6,".",2,"_","_",".",".",2,".","."],[".",".",2,".",3,"_",2,".",".",2,".","_","_",4,7,".",4,".","_","_",".",4,".",".",4],[".",3,".",".",".","_",".",".",".",".",".","_","_",".",".",".",".",".","_","_",4,".",".",4,"."],[4,".",".",".",".","_",".",".",".",".",".","_","_",".",".",".",".",".","_","_",".",".",".",".","."],[".",".",".",".",".","_",".",".",".",".",".","_","_",".",".",".",".",".","_","_",".",".",".",".","."],[".",".",".",".",".","_",".",".",".",".",".","_","_",".",".",".",".",".","_","_",".",".",".",".","."]],[[".",".",".",".",".",".",".",".","_","_","_","_",".",".",".",".",".","_","_","_",".",".",".",".",".","."],[".",".",".",".",".",".",".",".","_","_","_","_",".",".",".",".",".","_","_","_",".",".",".",".",".","."],[3,3,3,3,3,1,".",1,"_","_","_","_",3,1,".",".",".","_","_","_",".",".",".",".",".",1],[".",".",".",".",".",".",4,".","_","_","_","_",".",".",4,3,1,"_","_","_",4,4,4,4,".","."],[".",".",".",".",".",".",".",".","_","_","_","_",".",".",".",".",".","_","_","_",".",".",".",".",4,"."],[".",".",".",".",".",".",".",".","_","_","_","_",".",".",".",".",".","_","_","_",".",".",".",".",".","."]],[[".",".",".",".",".","_","_","_","_","_",".",".",".",".",".","_","_","_","_","_","_","_","_","_","_",".",".",".",".","."],[".",".",".",".",".","_","_","_","_","_",".",".",".",".",".","_","_","_","_","_","_","_","_","_","_",".",".",".",".","."],[3,1,".",".",".","_","_","_","_","_",3,3,3,1,1,"_","_","_","_","_","_","_","_","_","_",3,1,".",".","."],[".",".",4,3,1,"_","_","_","_","_",".",".",".",".",".","_","_","_","_","_","_","_","_","_","_",".",".",4,3,1],[".",".",".",".",".","_","_","_","_","_",".",".",".",".",".","_","_","_","_","_","_","_","_","_","_",".",".",".",".","."],[".",".",".",".",".","_","_","_","_","_",".",".",".",".",".","_","_","_","_","_","_","_","_","_","_",".",".",".",".","."]]],"numberofstrings":6,"notes":["E","B","G","D","A","E","B"],"capo":0,"stringnotes":["E4","B3","G3","D3","A2","E2"],"comments":["Stave 1:","Stave 2:","Stave 3:","Stave 4:","Stave 5:","Stave 6:","Stave 7:"],"timing":[[null,null,null,null,null,null,null,null,null,null,null,null,null,null,null,null,null,null,null,null,null,null,null,null,null,null],[null,null,null,null,null,null,null,null,null,null,null,null,null,null,null,null,null,null,null,null,null,null,null,null,null,null,null,null],[null,null,null,null,null,null,null,null,null,null,null,null,null,null,null,null,null,null,null,null,null,null,null,null,null,null,null,null,null,null,null,null,null,null,null,null],[null,null,null,null,null,null,null,null,null,null,null,null,null,null,null,null,null,null,null,null,null,null,null,null,null,null,null],[null,null,null,null,null,null,null,null,null,null,null,null,null,null,null,null,null,null,null,null,null,null,null,null,null],[null,null,null,null,null,null,null,null,null,null,null,null,null,null,null,null,null,null,null,null,null,null,null,null,null,null],[null,null,null,null,null,null,null,null,null,null,null,null,null,null,null,null,null,null,null,null,null,null,null,null,null,null,null,null,null,null]],"timingvisible":false,"tabcounter":36,"stave":2,"totalstaves":7,"instrument":"6guitar","selectedtuning":"6_standard","version":"13"}

Member for

1 month 3 weeks
Submitted by ev on Thu, 2020-11-26 17:33