Sound will begin in 5 seconds

Off Adeline

Chords
01234567891011121314151617181920212223
E
B
G
D
A
E
B
0 1 2 3 4 5 6 7 8 9 10 11 12 13 14 15 16 17 18 19 20 21 22 23
(/) Slide Up  (\) Slide Down  (h) Hammer On  (p) Pull Off  (b) Bend (r) Release (v) Vibrato

Stave 1:

D|-------------------------|-------------------------|-------------------------|-
A|-------------------------|-------------------------|-------------------------|-
F|-------------------------|-------------------------|-------------------------|-
C|-------------------------|-------------------------|-------------------------|-
G|-0-0-3-3-0-1-0-----------|-0-0-3-3-0-1-0-----------|-0-0-3-3-0-1-0-----------|-
C|-0-0-----------5-7-8-5-1r|-0-0-----------5-7-8-5-1r|-0-0-----------5-7-8-5-1r|-

Stave 2:

D|---------------------|-
A|---------------------|-
F|---------------------|-
C|---------------------|-
G|-0-0-3-3-0-1-0-------|-
C|-0-0-----------5-7-1r|-

Stave 3:

D|---------------------|-
A|---------------------|-
F|---------------------|-
C|---------------------|-
G|-0-0-3-3-0-1-0-------|-
C|-0-0-----------5-7-1r|-

Stave 4:

D|-------------------------------|-------------------------------|-
A|-------------------------------|-------------------------------|-
F|-------------------------------|-------------------------------|-
C|-------------------------------|-------------------------------|-
G|-0-0---------------------------|-0-0---------------------------|-
C|-0-0----0-0-0-0----0-0-0-13-12-|-0-0----0-0-0-0----0-0-0-13-12-|-

Stave 5:

D|--------------------------------------------------------|-
A|--------------------------------------------------------|-
F|---------------------------8-8----8-8-8-3----3-3----8-8-|-
C|---------------------------6-6----6-6-6-1----1-1----6-6-|-
G|-0-0----0-3-0-0-0----0-1-3-6-6----6-6-6-1----1-1----6-6-|-
C|-0-0----0-3-0-0-0----0-1-3-6-6----6-6-6-1----1-1----6-6-|-

Stave 6:

D|-
A|-
F|-
C|-
G|-
C|-

Stave 7:

D|-----------------------------------------------------------|-
A|-----------------------------------------------------------|-
F|-----------------------------------------------------------|-
C|-----------------------------------------------------------|-
G|-------------------5-5-5-4-7-8-8-8-------7-7---------------|-
C|-0-0-0-3-3-3-2-2-2-----------------8-8-8-----8-8-8-7-7-5-5-|-

http://www.guitartabcreator.com
Guitar Tab Creator is intended to store guitar tab created through the tool. It currently does not support in-line text editing. Any text you place in here will be lost. If you need to comment on your tab, please use the "Tab Notes" section located below.