Rod Stewart - I don't want to talk about it (Bass)

Chords

01234567891011121314151617181920212223
E
B
G
D
A
E
B
0 1 2 3 4 5 6 7 8 9 10 11 12 13 14 15 16 17 18 19 20 21 22 23
(/) Slide Up  (\) Slide Down  (h) Hammer On  (p) Pull Off  (b) Bend (r) Release (v) Vibrato

Verse:

G|-----------------------------------3-----------3--
D|-----------0--1--3--------3--3--------------------
A|--3-----3-----------3-----------1-----------1-----
E|-----3-----------------1--------------1--3--------

Verse:

G|--------------------------------------3-----------------------
D|-----------0--1--3--------3-----------------------------------
A|--3-----3-----------3--------------1-----------1-----------1--
E|-----3-----------------1-----1--3--------1--3--------1--3-----

Verse:

G|--------------------------------------------------------
D|-----------0--1--3--------3-----------------------------
A|--3-----3-----------3--------1--1--------1-----------1--
E|-----3-----------------1-----------1--3--------1--3-----

Chorus:

G|-----------------------------------------------------------------------
D|--1--3-----------1--1--2--3-----3--2--1-----1--2--3--------------------
A|--------1--------------------------------------------3--------1-----1--
E|-----------5--3-----------------------------------------1--1-----1-----

Verse:

G|-----------------------------------------------------------
D|-----------0--1--3--1--3-----------------------------------
A|--3-----3-----------------3-----------1-----1-----1-----1--
E|-----3-----------------------1-----1-----1-----1-----1-----

Verse:

G|----------------------------------------------------------
D|-----------0--1--3--1--3-----------------2/8--6--5--3--1--
A|--3-----3-----------------3-----1--1----------------------
E|-----3----------------------------------------------------

Chorus:

G|-----------------------------------------------------------------------
D|--1--3-----------1--1--2--3-----3--2--1-----1--2--3--------------------
A|--------1--------------------------------------------3--------1-----1--
E|-----------5--3-----------------------------------------1--1-----1-----

Verse:

G|-----------------------------------------------------------
D|-----------0--1--3--1--3-----------------------------------
A|--3-----3-----------------3-----------1-----1-----1-----1--
E|-----3-----------------------1-----1-----1-----1-----1-----

Verse:

G|----------------------------------------------------------
D|-----------0--1--3--1--3-----------------2/8--6--5--3--1--
A|--3-----3-----------------3-----1--1----------------------
E|-----3----------------------------------------------------

Chorus:

G|-----------------------------------------------------------------------
D|--1--3-----------1--1--2--3-----3--2--1-----1--2--3--------------------
A|--------1--------------------------------------------3--------1-----1--
E|-----------5--3-----------------------------------------1--1-----1-----

Verse:

G|--------------------------------------------------------------------------
D|-----------0--1--3--------------------------------2--3--4-----2--4--------
A|--3-----3-----------3-----1--------2--3--4-----4--------------------4-----
E|-----3-----------------1-----5--3-----------4--------------------------2--

Verse:

G|--------------------------------------------------------------------
D|-----------------------------------------2--3--4-----4--------------
A|--2-----2-----4--5--6--2--------4-----4-----------4-----4-----2--2--
E|-----2--------------------2--2-----4-----------------------2--------

End:

G|-------------------------------------------------------
D|--3/9--7--6--4--2-----2--3--4-----4--3--2-----2--3--4--
A|-------------------------------------------------------
E|-------------------------------------------------------

							http://www.guitartabcreator.com
Instruments
{"strings":[[[".",".",".",".",".",".",".",".",".",".",".",3,".",".",".",3],[".",".",".",0,1,3,".",".",3,3,".",".",".",".",".","."],[3,".",3,".",".",".",3,".",".",".",1,".",".",".",1,"."],[".",3,".",".",".",".",".",1,".",".",".",".",1,3,".","."]],[[".",".",".",".",".",".",".",".",".",".",".",".",3,".",".",".","_",".",".","."],[".",".",".",0,1,3,".",".",3,".",".",".",".",".",".",".","_",".",".","."],[3,".",3,".",".",".",3,".",".",".",".",1,".",".",".",1,"_",".",".",1],[".",3,".",".",".",".",".",1,".",1,3,".",".",1,3,".","_",1,3,"."]],[[".",".",".",".",".",".",".",".",".",".",".",".",".",".","_",".",".","."],[".",".",".",0,1,3,".",".",3,".",".",".",".",".","_",".",".","."],[3,".",3,".",".",".",3,".",".",1,1,".",".",1,"_",".",".",1],[".",3,".",".",".",".",".",1,".",".",".",1,3,".","_",1,3,"."]],[[".",".",".",".",".",".",".",".",".","_",".",".",".","_",".",".",".",".",".",".",".",".","."],[1,3,".",".",".",1,1,2,3,"_",3,2,1,"_",1,2,3,".",".",".",".",".","."],[".",".",1,".",".",".",".",".",".","_",".",".",".","_",".",".",".",3,".",".",1,".",1],[".",".",".",5,3,".",".",".",".","_",".",".",".","_",".",".",".",".",1,1,".",1,"."]],[[".",".",".",".",".",".",".",".",".",".","_",".",".",".",".",".",".",".","."],[".",".",".",0,1,3,1,3,".",".","_",".",".",".",".",".",".",".","."],[3,".",3,".",".",".",".",".",3,".","_",".",1,".",1,".",1,".",1],[".",3,".",".",".",".",".",".",".",1,"_",1,".",1,".",1,".",1,"."]],[[".",".",".",".",".",".",".",".",".","_",".",".","_",".",".",".",".",".",".","."],[".",".",".",0,1,3,1,3,".","_",".",".","_",2,"/",8,6,5,3,1],[3,".",3,".",".",".",".",".",3,"_",1,1,"_",".",".",".",".",".",".","."],[".",3,".",".",".",".",".",".",".","_",".",".","_",".",".",".",".",".",".","."]],[[".",".",".",".",".",".",".",".",".","_",".",".",".","_",".",".",".",".",".",".",".",".","."],[1,3,".",".",".",1,1,2,3,"_",3,2,1,"_",1,2,3,".",".",".",".",".","."],[".",".",1,".",".",".",".",".",".","_",".",".",".","_",".",".",".",3,".",".",1,".",1],[".",".",".",5,3,".",".",".",".","_",".",".",".","_",".",".",".",".",1,1,".",1,"."]],[[".",".",".",".",".",".",".",".",".",".","_",".",".",".",".",".",".",".","."],[".",".",".",0,1,3,1,3,".",".","_",".",".",".",".",".",".",".","."],[3,".",3,".",".",".",".",".",3,".","_",".",1,".",1,".",1,".",1],[".",3,".",".",".",".",".",".",".",1,"_",1,".",1,".",1,".",1,"."]],[[".",".",".",".",".",".",".",".",".","_",".",".","_",".",".",".",".",".",".","."],[".",".",".",0,1,3,1,3,".","_",".",".","_",2,"/",8,6,5,3,1],[3,".",3,".",".",".",".",".",3,"_",1,1,"_",".",".",".",".",".",".","."],[".",3,".",".",".",".",".",".",".","_",".",".","_",".",".",".",".",".",".","."]],[[".",".",".",".",".",".",".",".",".","_",".",".",".","_",".",".",".",".",".",".",".",".","."],[1,3,".",".",".",1,1,2,3,"_",3,2,1,"_",1,2,3,".",".",".",".",".","."],[".",".",1,".",".",".",".",".",".","_",".",".",".","_",".",".",".",3,".",".",1,".",1],[".",".",".",5,3,".",".",".",".","_",".",".",".","_",".",".",".",".",1,1,".",1,"."]],[[".",".",".",".",".",".",".",".",".",".",".",".",".",".",".",".",".",".",".","_",".",".",".","."],[".",".",".",0,1,3,".",".",".",".",".",".",".",".",".",".",2,3,4,"_",2,4,".","."],[3,".",3,".",".",".",3,".",1,".",".",2,3,4,".",4,".",".",".","_",".",".",4,"."],[".",3,".",".",".",".",".",1,".",5,3,".",".",".",4,".",".",".",".","_",".",".",".",2]],[[".",".",".","_",".",".",".",".",".",".",".",".",".",".",".",".",".",".",".",".",".","."],[".",".",".","_",".",".",".",".",".",".",".",".",".",2,3,4,".",4,".",".",".","."],[2,".",2,"_",4,5,6,2,".",".",4,".",4,".",".",".",4,".",4,".",2,2],[".",2,".","_",".",".",".",".",2,2,".",4,".",".",".",".",".",".",".",2,".","."]],[[".",".",".",".",".",".",".","_",".",".",".","_",".",".",".","_",".",".","."],[3,"/",9,7,6,4,2,"_",2,3,4,"_",4,3,2,"_",2,3,4],[".",".",".",".",".",".",".","_",".",".",".","_",".",".",".","_",".",".","."],[".",".",".",".",".",".",".","_",".",".",".","_",".",".",".","_",".",".","."]]],"numberofstrings":4,"notes":["G","D","A","E"],"capo":0,"stringnotes":["G2","D2","A1","E1"],"comments":["Verse:","Verse:","Verse:","Chorus:","Verse:","Verse:","Chorus:","Verse:","Verse:","Chorus:","Verse:","Verse:","End:"],"timing":[["W","W","W","W","W","W","W","W","W","W","W","W","W","W","W","W"],["W","W","W","W","W","W","W","W","W","W","W","W","W","W","W","W","W","W","W","W"],["W","W","W","W","W","W","W","W","W","W","W","W","W","W",null,"W","W","W"],["W","W","W","W","W","W","W","W","W",null,"W","W","W",null,"W","W","W","W","W","W","W","W","W"],["W","W","W","W","W","W","W","W","W","W",null,"W","W","W","W","W","W","W","W"],["W","W","W","W","W","W","W","W","W",null,"W","W",null,"W",null,"W","W","W","W","W"],["W","W","W","W","W","W","W","W","W",null,"W","W","W",null,"W","W","W","W","W","W","W","W","W"],["W","W","W","W","W","W","W","W","W","W",null,"W","W","W","W","W","W","W","W"],["W","W","W","W","W","W","W","W","W",null,"W","W",null,"W",null,"W","W","W","W","W"],["W","W","W","W","W","W","W","W","W",null,"W","W","W",null,"W","W","W","W","W","W","W","W","W"],["W","W","W","W","W","W","W","W","W","W","W","W","W","W","W","W","W","W","W",null,"W","W","W","W"],["W","W","W","W","W","W","W","W","W","W","W","W","W","W","W","W","W","W","W","W","W","W"],["W",null,"W","W","W","W","W",null,"W","W","W",null,"W","W","W",null,"W","W","W"]],"timingvisible":false,"tabcounter":19,"stave":12,"totalstaves":13,"instrument":"4bass","selectedtuning":"4bass","version":"13"}

Member for

1 month 1 week
Submitted by Euromagnet on Tue, 2020-10-27 09:38