Rod Stewart - Have I Told You Lately (Bass)

01234567891011121314151617181920212223
E
B
G
D
A
E
B
0 1 2 3 4 5 6 7 8 9 10 11 12 13 14 15 16 17 18 19 20 21 22 23
(/) Slide Up  (\) Slide Down  (h) Hammer On  (p) Pull Off  (b) Bend (r) Release (v) Vibrato

Intro:

G|-----------------------------------------------------------------------------------
D|--------------0-----0--1-----1--3-----------------------------0-----0--1-----1--3--
A|--1-----1--3--------------------------------1-----1-----1--3-----------------------
E|-----------------------------------1--1--3-----------------------------------------

1

G|-----------------------------------------------------------------------------------
D|--------------0-----0--1-----1--3-----------------------------0-----0--1-----1--3--
A|--1-----1--3--------------------------------1-----1-----1--3-----------------------
E|-----------------------------------1--1--3-----------------------------------------

2

G|-----------------------------------------------
D|--1-----1--1-----0-----0--0-----0--------------
A|-----------------------------------3-----1-----
E|--------------------------------------1-----1--

3

G|-----------------------------------------------------------------------
D|--------------0-----0--1-----1--3-----------------0-----0--1-----1--3--
A|--1-----1--3--------------------------1-----1--3-----------------------
E|-----------------------------------------------------------------------

4

G|-----------------------------------------------------------------------------------------------------
D|--1-----1--1-----0-----0--0-----0--------------------0--1-----------1--1-----------1-----------1--1--
A|-----------------------------------3-----1-----1--3-----------1--3-----------1--3--------1--3--------
E|--------------------------------------1--------------------------------------------------------------

5

G|--------------------------------------------------------------------------------------------------
D|--0-----------0--0-----0--------0--1-----------1--1-----------1-----------1--1-----0-----0--0-----
A|--------1--3-----------------3-----------1--3-----------1--3--------1--3--------------------------
E|-----------------------------------------------------------------------------------------------1--

6

G|-----------------------------------------------------------------------------------
D|--------------0-----0--1-----1--3-----------------------------0-----0--1-----1--3--
A|--1-----1--3--------------------------------1-----1-----1--3-----------------------
E|-----------------------------------1--1--3-----------------------------------------

7

G|-----------------------------------------------
D|--1-----1--1-----0-----0--0-----0--------------
A|-----------------------------------3-----1-----
E|--------------------------------------1-----1--

Instrumentaal

G|-----------------------------------------------------------------------
D|--------------0-----0--1-----1--3-----------------0-----0--1-----1--3--
A|--1-----1--3--------------------------1-----1--3-----------------------
E|-----------------------------------------------------------------------

Instrumentaal

G|-----------------------------------------------------------------------------------------------------
D|--1-----1--1-----0-----0--0-----0--------------------0--1-----------1--1-----------1-----------1--1--
A|-----------------------------------3-----1-----1--3-----------1--3-----------1--3--------1--3--------
E|--------------------------------------1--------------------------------------------------------------

10

G|--------------------------------------------------------------------------------------------------
D|--0-----------0--0-----0--------0--1-----------1--1-----------1-----------1--1-----0-----0--0-----
A|--------1--3-----------------3-----------1--3-----------1--3--------1--3--------------------------
E|-----------------------------------------------------------------------------------------------1--

11

G|-----------------------------------------------------------------------------------
D|--------------0-----0--1-----1--3-----------------------------0-----0--1-----1--3--
A|--1-----1--3--------------------------------1-----1-----1--3-----------------------
E|-----------------------------------1--1--3-----------------------------------------

12

G|--------------------------------------------------------------------------------------
D|--1-----1--1-----0-----0--0-----0--------------0--1-----1--1--0-----0--0--------------
A|-----------------------------------3-----1--3-----------------------------3--3-----1--
E|--------------------------------------1-----------------------------------------1-----

13

G|-----------------------------------------------
D|--------0--1-----1--1--0-----0--0--------------
A|--1--3-----------------------------3--3-----1--
E|-----------------------------------------1-----

							http://www.guitartabcreator.com
Chords

genre
Instruments
{"strings":[[[".","_",".",".",".","_",".",".","_",".",".",".",".",".",".","_",".","_",".",".",".","_",".",".","_",".","."],[".","_",".",".",0,"_",0,1,"_",1,3,".",".",".",".","_",".","_",".",".",0,"_",0,1,"_",1,3],[1,"_",1,3,".","_",".",".","_",".",".",".",".",".",1,"_",1,"_",1,3,".","_",".",".","_",".","."],[".","_",".",".",".","_",".",".","_",".",".",1,1,3,".","_",".","_",".",".",".","_",".",".","_",".","."]],[[".","_",".",".",".","_",".",".","_",".",".",".",".",".",".","_",".","_",".",".",".","_",".",".","_",".","."],[".","_",".",".",0,"_",0,1,"_",1,3,".",".",".",".","_",".","_",".",".",0,"_",0,1,"_",1,3],[1,"_",1,3,".","_",".",".","_",".",".",".",".",".",1,"_",1,"_",1,3,".","_",".",".","_",".","."],[".","_",".",".",".","_",".",".","_",".",".",1,1,3,".","_",".","_",".",".",".","_",".",".","_",".","."]],[[".","_",".",".","_",".","_",".",".","_",".",".",".",".","."],[1,"_",1,1,"_",0,"_",0,0,"_",0,".",".",".","."],[".","_",".",".","_",".","_",".",".","_",".",3,".",1,"."],[".","_",".",".","_",".","_",".",".","_",".",".",1,".",1]],[[".","_",".",".",".","_",".",".","_",".",".","_",".","_",".",".",".","_",".",".","_",".","."],[".","_",".",".",0,"_",0,1,"_",1,3,"_",".","_",".",".",0,"_",0,1,"_",1,3],[1,"_",1,3,".","_",".",".","_",".",".","_",1,"_",1,3,".","_",".",".","_",".","."],[".","_",".",".",".","_",".",".","_",".",".","_",".","_",".",".",".","_",".",".","_",".","."]],[[".","_",".",".","_",".","_",".",".","_",".",".",".",".","_",".",".",".",".","_",".",".",".",".","_",".",".",".","_",".",".",".","."],[1,"_",1,1,"_",0,"_",0,0,"_",0,".",".",".","_",".",".",0,1,"_",".",".",1,1,"_",".",".",1,"_",".",".",1,1],[".","_",".",".","_",".","_",".",".","_",".",3,".",1,"_",1,3,".",".","_",1,3,".",".","_",1,3,".","_",1,3,".","."],[".","_",".",".","_",".","_",".",".","_",".",".",1,".","_",".",".",".",".","_",".",".",".",".","_",".",".",".","_",".",".",".","."]],[[".","_",".",".",".",".","_",".","_",".",".",".","_",".",".",".",".","_",".",".",".","_",".",".",".",".","_",".","_",".",".","."],[0,"_",".",".",0,0,"_",0,"_",".",0,1,"_",".",".",1,1,"_",".",".",1,"_",".",".",1,1,"_",0,"_",0,0,"."],[".","_",1,3,".",".","_",".","_",3,".",".","_",1,3,".",".","_",1,3,".","_",1,3,".",".","_",".","_",".",".","."],[".","_",".",".",".",".","_",".","_",".",".",".","_",".",".",".",".","_",".",".",".","_",".",".",".",".","_",".","_",".",".",1]],[[".","_",".",".",".","_",".",".","_",".",".",".",".",".",".","_",".","_",".",".",".","_",".",".","_",".","."],[".","_",".",".",0,"_",0,1,"_",1,3,".",".",".",".","_",".","_",".",".",0,"_",0,1,"_",1,3],[1,"_",1,3,".","_",".",".","_",".",".",".",".",".",1,"_",1,"_",1,3,".","_",".",".","_",".","."],[".","_",".",".",".","_",".",".","_",".",".",1,1,3,".","_",".","_",".",".",".","_",".",".","_",".","."]],[[".","_",".",".","_",".","_",".",".","_",".",".",".",".","."],[1,"_",1,1,"_",0,"_",0,0,"_",0,".",".",".","."],[".","_",".",".","_",".","_",".",".","_",".",3,".",1,"."],[".","_",".",".","_",".","_",".",".","_",".",".",1,".",1]],[[".","_",".",".",".","_",".",".","_",".",".","_",".","_",".",".",".","_",".",".","_",".","."],[".","_",".",".",0,"_",0,1,"_",1,3,"_",".","_",".",".",0,"_",0,1,"_",1,3],[1,"_",1,3,".","_",".",".","_",".",".","_",1,"_",1,3,".","_",".",".","_",".","."],[".","_",".",".",".","_",".",".","_",".",".","_",".","_",".",".",".","_",".",".","_",".","."]],[[".","_",".",".","_",".","_",".",".","_",".",".",".",".","_",".",".",".",".","_",".",".",".",".","_",".",".",".","_",".",".",".","."],[1,"_",1,1,"_",0,"_",0,0,"_",0,".",".",".","_",".",".",0,1,"_",".",".",1,1,"_",".",".",1,"_",".",".",1,1],[".","_",".",".","_",".","_",".",".","_",".",3,".",1,"_",1,3,".",".","_",1,3,".",".","_",1,3,".","_",1,3,".","."],[".","_",".",".","_",".","_",".",".","_",".",".",1,".","_",".",".",".",".","_",".",".",".",".","_",".",".",".","_",".",".",".","."]],[[".","_",".",".",".",".","_",".","_",".",".",".","_",".",".",".",".","_",".",".",".","_",".",".",".",".","_",".","_",".",".","."],[0,"_",".",".",0,0,"_",0,"_",".",0,1,"_",".",".",1,1,"_",".",".",1,"_",".",".",1,1,"_",0,"_",0,0,"."],[".","_",1,3,".",".","_",".","_",3,".",".","_",1,3,".",".","_",1,3,".","_",1,3,".",".","_",".","_",".",".","."],[".","_",".",".",".",".","_",".","_",".",".",".","_",".",".",".",".","_",".",".",".","_",".",".",".",".","_",".","_",".",".",1]],[[".","_",".",".",".","_",".",".","_",".",".",".",".",".",".","_",".","_",".",".",".","_",".",".","_",".","."],[".","_",".",".",0,"_",0,1,"_",1,3,".",".",".",".","_",".","_",".",".",0,"_",0,1,"_",1,3],[1,"_",1,3,".","_",".",".","_",".",".",".",".",".",1,"_",1,"_",1,3,".","_",".",".","_",".","."],[".","_",".",".",".","_",".",".","_",".",".",1,1,3,".","_",".","_",".",".",".","_",".",".","_",".","."]],[[".","_",".",".","_",".","_",".",".","_",".",".",".",".",".",".",".","_",".",".",".","_",".",".",".",".",".","."],[1,"_",1,1,"_",0,"_",0,0,"_",0,".",".",".",".",0,1,"_",1,1,0,"_",0,0,".",".",".","."],[".","_",".",".","_",".","_",".",".","_",".",3,".",1,3,".",".","_",".",".",".","_",".",".",3,3,".",1],[".","_",".",".","_",".","_",".",".","_",".",".",1,".",".",".",".","_",".",".",".","_",".",".",".",".",1,"."]],[[".",".",".",".","_",".",".",".","_",".",".",".",".",".","."],[".",".",0,1,"_",1,1,0,"_",0,0,".",".",".","."],[1,3,".",".","_",".",".",".","_",".",".",3,3,".",1],[".",".",".",".","_",".",".",".","_",".",".",".",".",1,"."]]],"numberofstrings":4,"notes":["G","D","A","E"],"capo":0,"stringnotes":["G2","D2","A1","E1"],"comments":["Intro:","1","2","3","4","5","6","7","Instrumentaal","Instrumentaal","10","11","12","13","14"],"timing":[[null,null,null,null,null,null,null,null,null,null,null,null,null,null,null,null,null,null,null,null,null,null,null,null,null,null,null],[null,null,null,null,null,null,null,null,null,null,null,null,null,null,null,null,null,null,null,null,null,null,null,null,null,null,null],[null,null,null,null,null,null,null,null,null,null,null,null,null,null,null],[null,null,null,null,null,null,null,null,null,null,null,null,null,null,null,null,null,null,null,null,null,null,null],[null,null,null,null,null,null,null,null,null,null,null,null,null,null,null,null,null,null,null,null,null,null,null,null,null,null,null,null,null,null,null,null,null],[null,null,null,null,null,null,null,null,null,null,null,null,null,null,null,null,null,null,null,null,null,null,null,null,null,null,null,null,null,null,null,null],[],[],[],[],[],[],[],["W",null,"W","W",null,"W",null,"W","W",null,"W","W","W","W","W","W","W",null,"W","W","W",null,"W","W","W","W","W","W"],["W","W","W","W",null,"W","W","W",null,"W","W","W","W","W","W"]],"timingvisible":false,"tabcounter":0,"totalstaves":14,"instrument":"4bass","selectedtuning":"4bass","version":"13"}

Member for

10 months 3 weeks
Submitted by Euromagnet on Mon, 2020-11-02 12:05