The Pretenders - Brass in Pocket (Bass)

01234567891011121314151617181920212223
E
B
G
D
A
E
B
0 1 2 3 4 5 6 7 8 9 10 11 12 13 14 15 16 17 18 19 20 21 22 23
(/) Slide Up  (\) Slide Down  (h) Hammer On  (p) Pull Off  (b) Bend (r) Release (v) Vibrato

Bovenste snaar .....Drop to "D"

G|-------------------------------------------------------------------------------------------------------------
D|---------------------------------------------------2h4-------------------------------------------------2-----
A|--7\0--0--0--0--0--0--0--0--0--0--0--0--0--0--2h4-------0--0--0--0--0--0--0--0--0--0--0--0--0--0--2h4-----4--
E|-------------------------------------------------------------------------------------------------------------

Stave 2:

G|--------------------------------------------------------------------------------------------------
D|--------------------------------------------------------------------------------------------------
A|--------------------------------------------------------------------------------------------------
E|--4--4--4--4--4--4--4--4--4--4--4--4--4--4--4--4--0--0--0--0--0--0--0--0--2--2--2--2--2--2--2--2--

Stave 3:

G|--------------------------------------------------------------------------------------------------
D|--------------------------------------------------------------------------------------------------
A|--7--7--7--7--7--7--7--7--7--7--7--7--7--7--7--7--7--7--7--7--7--7--7--7--7--7--7--7--7--7--7--7--
E|--------------------------------------------------------------------------------------------------

Stave 4:

G|--------------------------------------------------------------------------------------------------
D|-----------------------------------------------------------------------------------------------7--
A|--7--7--7--7--7--7--7--7--7--7--7--7--7--7--7--7--7--7--7--7--7--7--7--7--7--7--7--7--9--7--9-----
E|--------------------------------------------------------------------------------------------------

Stave 5:

G|--------------------------------------------------------------------------------------------------
D|--------7--7--------7--7--------7--7--------7--7--------------------------------------------------
A|--------------------------------------------------------------------------------------------------
E|--7--7--------7--7--------7--7--------7--7--------4--4--4--4--4--4--4--4--4--4--4--4--4--4--4--4--

Stave 6:

G|--------------------------------------------------------------------------------------------------
D|--------------------------------------------------------------------------------------------------
A|--------------------------------------------------------------------------------------------------
E|--0--0--0--0--0--0--0--0--0--0--0--0--0--0--0--0--2--2--2--2--2--2--2--2--2--2--2--2--2--2--2--2--

Stave 7:

G|-----------------------------------------------------------------------------------------------------------
D|--2--------2-------------------------------------------2h4-------------------------------------------2-----
A|-----2--4-----0--0--0--0--0--0--0--0--0--0--0--0--2h4-------0--0--0--0--0--0--0--0--0--0--0--0--2h4-----4--
E|-----------------------------------------------------------------------------------------------------------

Stave 8:

G|--------------------------------------------------------------------------------------------------
D|--------------------------------------------------------------------------------------------------
A|--------------------------------------------------------------------------------------------------
E|--4--4--4--4--4--4--4--4--4--4--4--4--4--4--4--4--0--0--0--0--0--0--0--0--2--2--2--2--2--2--2--2--

Stave 9:

G|--------------------------------------------------------------------------------------------------
D|--------------------------------------------------------------------------------------------------
A|--7--7--7--7--7--7--7--7--7--7--7--7--7--7--7--7--7--7--7--7--7--7--7--7--7--7--7--7--7--7--7--7--
E|--------------------------------------------------------------------------------------------------

Stave 10:

G|--------------------------------------------------------------------------------------------------
D|-----------------------------------------------------------------------------------------------7--
A|--7--7--7--7--7--7--7--7--7--7--7--7--7--7--7--7--7--7--7--7--7--7--7--7--7--7--7--7--9--7--9-----
E|--------------------------------------------------------------------------------------------------

Stave 11:

G|--------------------------------------------------------------------------------------------------
D|--------7--7--------7--7--------7--7--------7--7--------------------------------------------------
A|--------------------------------------------------------------------------------------------------
E|--7--7--------7--7--------7--7--------7--7--------4--4--4--4--4--4--4--4--4--4--4--4--4--4--4--4--

Stave 12:

G|--------------------------------------------------------------------------------------------------
D|--------------------------------------------------------------------------------------------------
A|--------------------------------------------------------------------------------------------------
E|--0--0--0--0--0--0--0--0--0--0--0--0--0--0--0--0--2--2--2--2--2--2--2--2--2--2--2--2--2--2--2--2--

Stave 13:

G|--------------------------------------------------------------------------------------------------
D|-----------7--7--------7--7--------7--7--------7--7-----------------------------------------------
A|--------------------------------------------------------------------------------------------------
E|--4--7--7--------7--7--------7--7--------7--7--------4--4--4--4--4--4--4--4--4--4--4--4--4--4--4--

Stave 14:

G|--------------------------------------------------------------------------------------------------
D|--------------------------------------------------------------------------------------------------
A|--------------------------------------------------------------------------------------------------
E|--0--0--0--0--0--0--0--0--0--0--0--0--0--0--0--0--2--2--2--2--2--2--2--2--2--2--2--2--2--2--2--2--

Stave 15:

G|----------------------------------------------------------------------------------------------------------
D|--2--------2-------------------------------------------2h4-------------------------------------------2h4--
A|-----2--4-----0--0--0--0--0--0--0--0--0--0--0--0--2h4-------0--0--0--0--0--0--0--0--0--0--0--0--2h4-------
E|----------------------------------------------------------------------------------------------------------

Stave 16:

G|--------------------------------------------------------------------------------------
D|-------------------------------------------2h4-------------------------------2--4-----
A|--0--0--0--0--0--0--0--0--0--0--0--0--2h4-------0--0--0--0--0--0--0--0--2h4--------0--
E|--------------------------------------------------------------------------------------

							http://www.guitartabcreator.com
Chords

Instruments
{"strings":[[[".",".",".",".",".",".",".",".",".",".",".",".",".",".",".",".",".",".",".",".",".",".",".",".",".",".",".",".",".",".",".",".",".",".",".",".",".",".",".",".","."],[".",".",".",".",".",".",".",".",".",".",".",".",".",".",".",".",".",".",".",2,"h",4,".",".",".",".",".",".",".",".",".",".",".",".",".",".",".",".",".",2,"."],[7,"\\",0,0,0,0,0,0,0,0,0,0,0,0,0,0,2,"h",4,".",".",".",0,0,0,0,0,0,0,0,0,0,0,0,0,0,2,"h",4,".",4],[".",".",".",".",".",".",".",".",".",".",".",".",".",".",".",".",".",".",".",".",".",".",".",".",".",".",".",".",".",".",".",".",".",".",".",".",".",".",".",".","."]],[[".",".",".",".",".",".",".",".",".",".",".",".",".",".",".",".",".",".",".",".",".",".",".",".",".",".",".",".",".",".",".","."],[".",".",".",".",".",".",".",".",".",".",".",".",".",".",".",".",".",".",".",".",".",".",".",".",".",".",".",".",".",".",".","."],[".",".",".",".",".",".",".",".",".",".",".",".",".",".",".",".",".",".",".",".",".",".",".",".",".",".",".",".",".",".",".","."],[4,4,4,4,4,4,4,4,4,4,4,4,4,4,4,4,0,0,0,0,0,0,0,0,2,2,2,2,2,2,2,2]],[[".",".",".",".",".",".",".",".",".",".",".",".",".",".",".",".",".",".",".",".",".",".",".",".",".",".",".",".",".",".",".","."],[".",".",".",".",".",".",".",".",".",".",".",".",".",".",".",".",".",".",".",".",".",".",".",".",".",".",".",".",".",".",".","."],[7,7,7,7,7,7,7,7,7,7,7,7,7,7,7,7,7,7,7,7,7,7,7,7,7,7,7,7,7,7,7,7],[".",".",".",".",".",".",".",".",".",".",".",".",".",".",".",".",".",".",".",".",".",".",".",".",".",".",".",".",".",".",".","."]],[[".",".",".",".",".",".",".",".",".",".",".",".",".",".",".",".",".",".",".",".",".",".",".",".",".",".",".",".",".",".",".","."],[".",".",".",".",".",".",".",".",".",".",".",".",".",".",".",".",".",".",".",".",".",".",".",".",".",".",".",".",".",".",".",7],[7,7,7,7,7,7,7,7,7,7,7,7,7,7,7,7,7,7,7,7,7,7,7,7,7,7,7,7,9,7,9,"."],[".",".",".",".",".",".",".",".",".",".",".",".",".",".",".",".",".",".",".",".",".",".",".",".",".",".",".",".",".",".",".","."]],[[".",".",".",".",".",".",".",".",".",".",".",".",".",".",".",".",".",".",".",".",".",".",".",".",".",".",".",".",".",".",".","."],[".",".",7,7,".",".",7,7,".",".",7,7,".",".",7,7,".",".",".",".",".",".",".",".",".",".",".",".",".",".",".","."],[".",".",".",".",".",".",".",".",".",".",".",".",".",".",".",".",".",".",".",".",".",".",".",".",".",".",".",".",".",".",".","."],[7,7,".",".",7,7,".",".",7,7,".",".",7,7,".",".",4,4,4,4,4,4,4,4,4,4,4,4,4,4,4,4]],[[".",".",".",".",".",".",".",".",".",".",".",".",".",".",".",".",".",".",".",".",".",".",".",".",".",".",".",".",".",".",".","."],[".",".",".",".",".",".",".",".",".",".",".",".",".",".",".",".",".",".",".",".",".",".",".",".",".",".",".",".",".",".",".","."],[".",".",".",".",".",".",".",".",".",".",".",".",".",".",".",".",".",".",".",".",".",".",".",".",".",".",".",".",".",".",".","."],[0,0,0,0,0,0,0,0,0,0,0,0,0,0,0,0,2,2,2,2,2,2,2,2,2,2,2,2,2,2,2,2]],[[".",".",".",".",".",".",".",".",".",".",".",".",".",".",".",".",".",".",".",".",".",".",".",".",".",".",".",".",".",".",".",".",".",".",".",".",".",".","."],[2,".",".",2,".",".",".",".",".",".",".",".",".",".",".",".",".",".",".",2,"h",4,".",".",".",".",".",".",".",".",".",".",".",".",".",".",".",2,"."],[".",2,4,".",0,0,0,0,0,0,0,0,0,0,0,0,2,"h",4,".",".",".",0,0,0,0,0,0,0,0,0,0,0,0,2,"h",4,".",4],[".",".",".",".",".",".",".",".",".",".",".",".",".",".",".",".",".",".",".",".",".",".",".",".",".",".",".",".",".",".",".",".",".",".",".",".",".",".","."]],[[".",".",".",".",".",".",".",".",".",".",".",".",".",".",".",".",".",".",".",".",".",".",".",".",".",".",".",".",".",".",".","."],[".",".",".",".",".",".",".",".",".",".",".",".",".",".",".",".",".",".",".",".",".",".",".",".",".",".",".",".",".",".",".","."],[".",".",".",".",".",".",".",".",".",".",".",".",".",".",".",".",".",".",".",".",".",".",".",".",".",".",".",".",".",".",".","."],[4,4,4,4,4,4,4,4,4,4,4,4,4,4,4,4,0,0,0,0,0,0,0,0,2,2,2,2,2,2,2,2]],[[".",".",".",".",".",".",".",".",".",".",".",".",".",".",".",".",".",".",".",".",".",".",".",".",".",".",".",".",".",".",".","."],[".",".",".",".",".",".",".",".",".",".",".",".",".",".",".",".",".",".",".",".",".",".",".",".",".",".",".",".",".",".",".","."],[7,7,7,7,7,7,7,7,7,7,7,7,7,7,7,7,7,7,7,7,7,7,7,7,7,7,7,7,7,7,7,7],[".",".",".",".",".",".",".",".",".",".",".",".",".",".",".",".",".",".",".",".",".",".",".",".",".",".",".",".",".",".",".","."]],[[".",".",".",".",".",".",".",".",".",".",".",".",".",".",".",".",".",".",".",".",".",".",".",".",".",".",".",".",".",".",".","."],[".",".",".",".",".",".",".",".",".",".",".",".",".",".",".",".",".",".",".",".",".",".",".",".",".",".",".",".",".",".",".",7],[7,7,7,7,7,7,7,7,7,7,7,7,7,7,7,7,7,7,7,7,7,7,7,7,7,7,7,7,9,7,9,"."],[".",".",".",".",".",".",".",".",".",".",".",".",".",".",".",".",".",".",".",".",".",".",".",".",".",".",".",".",".",".",".","."]],[[".",".",".",".",".",".",".",".",".",".",".",".",".",".",".",".",".",".",".",".",".",".",".",".",".",".",".",".",".",".",".","."],[".",".",7,7,".",".",7,7,".",".",7,7,".",".",7,7,".",".",".",".",".",".",".",".",".",".",".",".",".",".",".","."],[".",".",".",".",".",".",".",".",".",".",".",".",".",".",".",".",".",".",".",".",".",".",".",".",".",".",".",".",".",".",".","."],[7,7,".",".",7,7,".",".",7,7,".",".",7,7,".",".",4,4,4,4,4,4,4,4,4,4,4,4,4,4,4,4]],[[".",".",".",".",".",".",".",".",".",".",".",".",".",".",".",".",".",".",".",".",".",".",".",".",".",".",".",".",".",".",".","."],[".",".",".",".",".",".",".",".",".",".",".",".",".",".",".",".",".",".",".",".",".",".",".",".",".",".",".",".",".",".",".","."],[".",".",".",".",".",".",".",".",".",".",".",".",".",".",".",".",".",".",".",".",".",".",".",".",".",".",".",".",".",".",".","."],[0,0,0,0,0,0,0,0,0,0,0,0,0,0,0,0,2,2,2,2,2,2,2,2,2,2,2,2,2,2,2,2]],[[".",".",".",".",".",".",".",".",".",".",".",".",".",".",".",".",".",".",".",".",".",".",".",".",".",".",".",".",".",".",".","."],[".",".",".",7,7,".",".",7,7,".",".",7,7,".",".",7,7,".",".",".",".",".",".",".",".",".",".",".",".",".",".","."],[".",".",".",".",".",".",".",".",".",".",".",".",".",".",".",".",".",".",".",".",".",".",".",".",".",".",".",".",".",".",".","."],[4,7,7,".",".",7,7,".",".",7,7,".",".",7,7,".",".",4,4,4,4,4,4,4,4,4,4,4,4,4,4,4]],[[".",".",".",".",".",".",".",".",".",".",".",".",".",".",".",".",".",".",".",".",".",".",".",".",".",".",".",".",".",".",".","."],[".",".",".",".",".",".",".",".",".",".",".",".",".",".",".",".",".",".",".",".",".",".",".",".",".",".",".",".",".",".",".","."],[".",".",".",".",".",".",".",".",".",".",".",".",".",".",".",".",".",".",".",".",".",".",".",".",".",".",".",".",".",".",".","."],[0,0,0,0,0,0,0,0,0,0,0,0,0,0,0,0,2,2,2,2,2,2,2,2,2,2,2,2,2,2,2,2]],[[".",".",".",".",".",".",".",".",".",".",".",".",".",".",".",".",".",".",".",".",".",".",".",".",".",".",".",".",".",".",".",".",".",".",".",".",".",".",".","."],[2,".",".",2,".",".",".",".",".",".",".",".",".",".",".",".",".",".",".",2,"h",4,".",".",".",".",".",".",".",".",".",".",".",".",".",".",".",2,"h",4],[".",2,4,".",0,0,0,0,0,0,0,0,0,0,0,0,2,"h",4,".",".",".",0,0,0,0,0,0,0,0,0,0,0,0,2,"h",4,".",".","."],[".",".",".",".",".",".",".",".",".",".",".",".",".",".",".",".",".",".",".",".",".",".",".",".",".",".",".",".",".",".",".",".",".",".",".",".",".",".",".","."]],[[".",".",".",".",".",".",".",".",".",".",".",".",".",".",".",".",".",".",".",".",".",".",".",".",".",".",".",".",".",".",".","."],[".",".",".",".",".",".",".",".",".",".",".",".",".",".",".",2,"h",4,".",".",".",".",".",".",".",".",".",".",".",2,4,"."],[0,0,0,0,0,0,0,0,0,0,0,0,2,"h",4,".",".",".",0,0,0,0,0,0,0,0,2,"h",4,".",".",0],[".",".",".",".",".",".",".",".",".",".",".",".",".",".",".",".",".",".",".",".",".",".",".",".",".",".",".",".",".",".",".","."]]],"numberofstrings":4,"notes":["G","D","A","E"],"capo":0,"stringnotes":["G2","D2","A1","E1"],"comments":["Bovenste snaar .....Drop to \"D\"","Stave 2:","Stave 3:","Stave 4:","Stave 5:","Stave 6:","Stave 7:","Stave 8:","Stave 9:","Stave 10:","Stave 11:","Stave 12:","Stave 13:","Stave 14:","Stave 15:","Stave 16:"],"timing":[["W",null,"W","W","W","W","W","W","W","W","W","W","W","W","W","W","W",null,"W","W",null,"W","W","W","W","W","W","W","W","W","W","W","W","W","W","W","W",null,"W","W","W"],["W","W","W","W","W","W","W","W","W","W","W","W","W","W","W","W","W","W","W","W","W","W","W","W","W","W","W","W","W","W","W","W"],["W","W","W","W","W","W","W","W","W","W","W","W","W","W","W","W","W","W","W","W","W","W","W","W","W","W","W","W","W","W","W","W"],["W","W","W","W","W","W","W","W","W","W","W","W","W","W","W","W","W","W","W","W","W","W","W","W","W","W","W","W","W","W","W","W"],["W","W","W","W","W","W","W","W","W","W","W","W","W","W","W","W","W","W","W","W","W","W","W","W","W","W","W","W","W","W","W","W"],["W","W","W","W","W","W","W","W","W","W","W","W","W","W","W","W","W","W","W","W","W","W","W","W","W","W","W","W","W","W","W","W"],["W","W","W","W","W","W","W","W","W","W","W","W","W","W","W","W","W",null,"W","W",null,"W","W","W","W","W","W","W","W","W","W","W","W","W","W",null,"W","W","W"],["W","W","W","W","W","W","W","W","W","W","W","W","W","W","W","W","W","W","W","W","W","W","W","W","W","W","W","W","W","W","W","W"],["W","W","W","W","W","W","W","W","W","W","W","W","W","W","W","W","W","W","W","W","W","W","W","W","W","W","W","W","W","W","W","W"],["W","W","W","W","W","W","W","W","W","W","W","W","W","W","W","W","W","W","W","W","W","W","W","W","W","W","W","W","W","W","W","W"],["W","W","W","W","W","W","W","W","W","W","W","W","W","W","W","W","W","W","W","W","W","W","W","W","W","W","W","W","W","W","W","W"],["W","W","W","W","W","W","W","W","W","W","W","W","W","W","W","W","W","W","W","W","W","W","W","W","W","W","W","W","W","W","W","W"],["W","W","W","W","W","W","W","W","W","W","W","W","W","W","W","W","W","W","W","W","W","W","W","W","W","W","W","W","W","W","W","W"],["W","W","W","W","W","W","W","W","W","W","W","W","W","W","W","W","W","W","W","W","W","W","W","W","W","W","W","W","W","W","W","W"],["W","W","W","W","W","W","W","W","W","W","W","W","W","W","W","W","W",null,"W","W",null,"W","W","W","W","W","W","W","W","W","W","W","W","W","W",null,"W","W",null,"W"],["W","W","W","W","W","W","W","W","W","W","W","W","W",null,"W","W",null,"W","W","W","W","W","W","W","W","W","W","W","W","W","W","W"]],"timingvisible":false,"tabcounter":32,"stave":15,"totalstaves":16,"instrument":"4bass","selectedtuning":"4bass","version":"13"}

Member for

10 months 3 weeks
Submitted by Euromagnet on Tue, 2020-12-29 12:46