Paul Weller - You Do Something To Me

01234567891011121314151617181920212223
E
B
G
D
A
E
B
0 1 2 3 4 5 6 7 8 9 10 11 12 13 14 15 16 17 18 19 20 21 22 23
(/) Slide Up  (\) Slide Down  (h) Hammer On  (p) Pull Off  (b) Bend (r) Release (v) Vibrato

Stave 1:

G|--------------------------------------------------------------------------------------------
D|-----------------5--7--------------------------------------------------------------9--9-----
A|-----7-----7--9--------5--------5--5--------5--7--------------------------7-----7--------7--
E|--7--------------------------5-----------7--------5-----5--7--7-----5--7--------------------

Stave 2:

G|--------------------------------------------------------------------------------------
D|-----------------------------------------------------------------------------9--9-----
A|-----7--7--------5--------5--5--------5--7--------------------------7-----7--------7--
E|--7-----------7--------5-----------7--------5-----5--7--7-----5--7--------------------

Stave 3:

G|--------------------------------------------------------------------------------------
D|-----------------------------------------------------------------------------9--9-----
A|-----7--7--------5--------5--5--------5--7--------------------------7-----7--------7--
E|--7-----------7--------5-----------7--------5-----5--7--7-----5--7--------------------

Stave 4:

G|--------------------------------------------------------------------------------------
D|-----------------------------------------------------------------------------9--9-----
A|-----7--7--------5--------5--5--------5--7--------------------------------7--------7--
E|--7-----------7--------5-----------7--------5-----5--7--7-----5--7--7-----------------

Stave 5:

G|-----------------------------------------------------------------------------------------
D|-----------------------------------------------------------------------------------------
A|--------------------------------------------------------------------5--7--5--7--------7--
E|--0--0--0--0--0--0--0--3--3--3--3--3--0--3--0--3--0--3--4--5-----7-----------------7-----

Stave 6:

G|-----------------------------------------------------------------------
D|-----------------------------------------------------------------------
A|--7--6--5--3--3-----3--3-----3-----------------------2--3-----3--5--7--
E|-----------------0--------------3--3--3--4--5-----5--------------------

							http://www.guitartabcreator.com
Chords

Instruments
{"strings":[[[".",".","_",".",".",".",".",".","_",".",".",".","_",".",".",".",".","_",".",".",".","_",".",".",".","_",".",".",".","."],[".",".","_",".",".",5,7,".","_",".",".",".","_",".",".",".",".","_",".",".",".","_",".",".",".","_",".",9,9,"."],[".",7,"_",7,9,".",".",5,"_",".",5,5,"_",".",5,7,".","_",".",".",".","_",".",".",7,"_",7,".",".",7],[7,".","_",".",".",".",".",".","_",5,".",".","_",7,".",".",5,"_",5,7,7,"_",5,7,".","_",".",".",".","."]],[[".",".",".","_",".",".","_",".",".",".","_",".",".",".",".","_",".",".",".","_",".",".",".","_",".",".",".","."],[".",".",".","_",".",".","_",".",".",".","_",".",".",".",".","_",".",".",".","_",".",".",".","_",".",9,9,"."],[".",7,7,"_",".",5,"_",".",5,5,"_",".",5,7,".","_",".",".",".","_",".",".",7,"_",7,".",".",7],[7,".",".","_",7,".","_",5,".",".","_",7,".",".",5,"_",5,7,7,"_",5,7,".","_",".",".",".","."]],[[".",".",".","_",".",".","_",".",".",".","_",".",".",".",".","_",".",".",".","_",".",".",".","_",".",".",".","."],[".",".",".","_",".",".","_",".",".",".","_",".",".",".",".","_",".",".",".","_",".",".",".","_",".",9,9,"."],[".",7,7,"_",".",5,"_",".",5,5,"_",".",5,7,".","_",".",".",".","_",".",".",7,"_",7,".",".",7],[7,".",".","_",7,".","_",5,".",".","_",7,".",".",5,"_",5,7,7,"_",5,7,".","_",".",".",".","."]],[[".",".",".","_",".",".","_",".",".",".","_",".",".",".",".","_",".",".",".","_",".",".",".","_",".",".",".","."],[".",".",".","_",".",".","_",".",".",".","_",".",".",".",".","_",".",".",".","_",".",".",".","_",".",9,9,"."],[".",7,7,"_",".",5,"_",".",5,5,"_",".",5,7,".","_",".",".",".","_",".",".",".","_",7,".",".",7],[7,".",".","_",7,".","_",5,".",".","_",7,".",".",5,"_",5,7,7,"_",5,7,7,"_",".",".",".","."]],[[".",".",".",".",".",".",".",".",".",".",".",".",".",".",".",".",".",".",".",".","_",".",".",".",".",".","_",".","."],[".",".",".",".",".",".",".",".",".",".",".",".",".",".",".",".",".",".",".",".","_",".",".",".",".",".","_",".","."],[".",".",".",".",".",".",".",".",".",".",".",".",".",".",".",".",".",".",".",".","_",".",5,7,5,7,"_",".",7],[0,0,0,0,0,0,0,3,3,3,3,3,0,3,0,3,0,3,4,5,"_",7,".",".",".",".","_",7,"."]],[[".",".",".",".",".",".",".",".","_",".",".",".",".",".",".","_",".",".",".","_",".",".","."],[".",".",".",".",".",".",".",".","_",".",".",".",".",".",".","_",".",".",".","_",".",".","."],[7,6,5,3,3,".",3,3,"_",3,".",".",".",".",".","_",".",2,3,"_",3,5,7],[".",".",".",".",".",0,".",".","_",".",3,3,3,4,5,"_",5,".",".","_",".",".","."]]],"numberofstrings":4,"notes":["G","D","A","E"],"capo":0,"stringnotes":["G2","D2","A1","E1"],"comments":["Stave 1:","Stave 2:","Stave 3:","Stave 4:","Stave 5:","Stave 6:"],"timing":[["W","W","W","W","W","W","W","W","W","W","W","W","W","W","W","W","W","W","W","W","W","W","W","W","W","W","W","W","W","W"],["W","W","W","W","W","W","W","W","W","W","W","W","W","W","W","W","W","W","W","W","W","W","W","W","W","W","W","W"],["W","W","W","W","W","W","W","W","W","W","W","W","W","W","W","W","W","W","W","W","W","W","W","W","W","W","W","W"],["W","W","W","W","W","W","W","W","W","W","W","W","W","W","W","W","W","W","W","W","W","W","W","W","W","W","W","W"],["W","W","W","W","W","W","W","W","W","W","W","W","W","W","W","W","W","W","W","W","W","W","W","W","W","W","W","W","W"],["W","W","W","W","W","W","W","W","W","W","W","W","W","W","W","W","W","W","W","W","W","W","W"]],"timingvisible":false,"tabcounter":23,"stave":5,"totalstaves":6,"instrument":"4bass","selectedtuning":"4bass","version":"13"}

Member for

10 months 3 weeks
Submitted by Euromagnet on Sat, 2021-05-22 09:36