Kansas - Dust in the wind (Bass)

01234567891011121314151617181920212223
E
B
G
D
A
E
B
0 1 2 3 4 5 6 7 8 9 10 11 12 13 14 15 16 17 18 19 20 21 22 23
(/) Slide Up  (\) Slide Down  (h) Hammer On  (p) Pull Off  (b) Bend (r) Release (v) Vibrato

Intro:

G|-----------------------------------------------
D|-----------------------------------------------
A|--3-----3-----3-----3-----0-----0-----0-----0--
E|-----------------------------------------------

Intro:

G|-----------------------------------------------
D|-----------------------------------------------
A|--3-----3-----3-----3-----0-----0-----0-----0--
E|-----------------------------------------------

Verse 1:

G|-----------------------------------------
D|--------------------------------0--------
A|--0--2--3-----2-----0-----------------0--
E|--------------------------3--------------



G|-----------------------------------------
D|--------------------------------0--------
A|--0--2--3-----2-----0-----------------0--
E|--------------------------3--------------



G|-----------------------------------------
D|-----------------------------------------
A|--------------0-----------------------0--
E|--2-----3-----------3-----2-----3--------

Verse 2:

G|-----------------------------------------
D|--------------------------------0--------
A|--0--2--3-----2-----0-----------------0--
E|--------------------------3--------------



G|-----------------------------------------
D|--------------------------------0--------
A|--0--2--3-----2-----0-----------------0--
E|--------------------------3--------------

...................................Start Bridge:

G|--------------------------------------------------------------------------
D|--------------------------------------------------------------------------
A|--------------0-----------------------0--0--0--0--0--0--0--0--0--0--0--0--
E|--2-----3-----------3-----2-----3-----------------------------------------

Bridge:

G|-----------------------------------------------
D|-----------------------------------------------
A|--3-----3-----3-----3-----0-----0-----0-----0--
E|-----------------------------------------------

Bridge:

G|-----------------------------------------------
D|-----------------------------------------------
A|--3-----3-----3-----3-----0-----0-----0-----0--
E|-----------------------------------------------

Verse 3:

G|-----------------------------------------
D|--------------------------------0--------
A|--0--2--3-----2-----0-----------------0--
E|--------------------------3--------------



G|-----------------------------------------
D|--------------------------------0--------
A|--0--2--3-----2-----0-----------------0--
E|--------------------------3--------------



G|--------------------------------------------------------------------
D|--------------------------------------------------------------------
A|--------------0-----------------------0-----------------------0-----
E|--2-----3-----------3-----2-----3-----------3-----2-----3-----------



G|-----------------------------------------------------------------
D|-----------------------------------------------------------------
A|--------------------0--0--0--0--0--0--0--0--0--0--0--0--0--0--0--
E|--3-----2-----3--------------------------------------------------

							http://www.guitartabcreator.com
Chords

Instruments
{"strings":[[[".","_",".","_",".","_",".","_",".","_",".","_",".","_","."],[".","_",".","_",".","_",".","_",".","_",".","_",".","_","."],[3,"_",3,"_",3,"_",3,"_",0,"_",0,"_",0,"_",0],[".","_",".","_",".","_",".","_",".","_",".","_",".","_","."]],[[".","_",".","_",".","_",".","_",".","_",".","_",".","_","."],[".","_",".","_",".","_",".","_",".","_",".","_",".","_","."],[3,"_",3,"_",3,"_",3,"_",0,"_",0,"_",0,"_",0],[".","_",".","_",".","_",".","_",".","_",".","_",".","_","."]],[[".",".",".","_",".","_",".","_",".","_",".","_","."],[".",".",".","_",".","_",".","_",".","_",0,"_","."],[0,2,3,"_",2,"_",0,"_",".","_",".","_",0],[".",".",".","_",".","_",".","_",3,"_",".","_","."]],[[".",".",".","_",".","_",".","_",".","_",".","_","."],[".",".",".","_",".","_",".","_",".","_",0,"_","."],[0,2,3,"_",2,"_",0,"_",".","_",".","_",0],[".",".",".","_",".","_",".","_",3,"_",".","_","."]],[[".","_",".","_",".","_",".","_",".","_",".","_","."],[".","_",".","_",".","_",".","_",".","_",".","_","."],[".","_",".","_",0,"_",".","_",".","_",".","_",0],[2,"_",3,"_",".","_",3,"_",2,"_",3,"_","."]],[[".",".",".","_",".","_",".","_",".","_",".","_","."],[".",".",".","_",".","_",".","_",".","_",0,"_","."],[0,2,3,"_",2,"_",0,"_",".","_",".","_",0],[".",".",".","_",".","_",".","_",3,"_",".","_","."]],[[".",".",".","_",".","_",".","_",".","_",".","_","."],[".",".",".","_",".","_",".","_",".","_",0,"_","."],[0,2,3,"_",2,"_",0,"_",".","_",".","_",0],[".",".",".","_",".","_",".","_",3,"_",".","_","."]],[[".","_",".","_",".","_",".","_",".","_",".","_",".",".",".",".",".",".",".",".",".",".",".","."],[".","_",".","_",".","_",".","_",".","_",".","_",".",".",".",".",".",".",".",".",".",".",".","."],[".","_",".","_",0,"_",".","_",".","_",".","_",0,0,0,0,0,0,0,0,0,0,0,0],[2,"_",3,"_",".","_",3,"_",2,"_",3,"_",".",".",".",".",".",".",".",".",".",".",".","."]],[[".","_",".","_",".","_",".","_",".","_",".","_",".","_","."],[".","_",".","_",".","_",".","_",".","_",".","_",".","_","."],[3,"_",3,"_",3,"_",3,"_",0,"_",0,"_",0,"_",0],[".","_",".","_",".","_",".","_",".","_",".","_",".","_","."]],[[".","_",".","_",".","_",".","_",".","_",".","_",".","_","."],[".","_",".","_",".","_",".","_",".","_",".","_",".","_","."],[3,"_",3,"_",3,"_",3,"_",0,"_",0,"_",0,"_",0],[".","_",".","_",".","_",".","_",".","_",".","_",".","_","."]],[[".",".",".","_",".","_",".","_",".","_",".","_","."],[".",".",".","_",".","_",".","_",".","_",0,"_","."],[0,2,3,"_",2,"_",0,"_",".","_",".","_",0],[".",".",".","_",".","_",".","_",3,"_",".","_","."]],[[".",".",".","_",".","_",".","_",".","_",".","_","."],[".",".",".","_",".","_",".","_",".","_",0,"_","."],[0,2,3,"_",2,"_",0,"_",".","_",".","_",0],[".",".",".","_",".","_",".","_",3,"_",".","_","."]],[[".","_",".","_",".","_",".","_",".","_",".","_",".","_",".","_",".","_",".","_",".","_"],[".","_",".","_",".","_",".","_",".","_",".","_",".","_",".","_",".","_",".","_",".","_"],[".","_",".","_",0,"_",".","_",".","_",".","_",0,"_",".","_",".","_",".","_",0,"_"],[2,"_",3,"_",".","_",3,"_",2,"_",3,"_",".","_",3,"_",2,"_",3,"_",".","_"]],[[".","_",".","_",".","_",".",".",".",".",".",".",".",".",".",".",".",".",".",".","."],[".","_",".","_",".","_",".",".",".",".",".",".",".",".",".",".",".",".",".",".","."],[".","_",".","_",".","_",0,0,0,0,0,0,0,0,0,0,0,0,0,0,0],[3,"_",2,"_",3,"_",".",".",".",".",".",".",".",".",".",".",".",".",".",".","."]]],"numberofstrings":4,"notes":["G","D","A","E"],"capo":0,"stringnotes":["G2","D2","A1","E1"],"comments":["Intro:","Intro:","Verse 1:","","","Verse 2:","","...................................Start Bridge:","Bridge:","Bridge:","Verse 3:","","",""],"timing":[["W",null,"W",null,"W",null,"W",null,"W",null,"W",null,"W",null,"W"],[],["W","W","W",null,"W",null,"W",null,"W",null,"W",null,"W"],[],["W","W","W",null,"W",null,"W",null,"W",null,"W",null,"W"],[],[],[null,null,null,null,null,null,null,null,null,null,null,null,null,"W","W","W","W","W","W","W","W","W","W","W"],[],[],[],[],[null,null,null,null,null,null,null,null,null,null,null,null,null,null,"W",null,"W",null,"W",null,"W"],["W",null,"W",null,"W",null,"W","W","W","W","W","W","W","W","W","W","W","W","W","W","W"]],"timingvisible":false,"tabcounter":21,"stave":13,"totalstaves":14,"instrument":"4bass","selectedtuning":"4bass","version":"13"}

Member for

10 months 3 weeks
Submitted by Euromagnet on Sat, 2020-11-14 09:36