Ilse de Lange - I Still Cry (Bass)

Chords

01234567891011121314151617181920212223
E
B
G
D
A
E
B
0 1 2 3 4 5 6 7 8 9 10 11 12 13 14 15 16 17 18 19 20 21 22 23
(/) Slide Up  (\) Slide Down  (h) Hammer On  (p) Pull Off  (b) Bend (r) Release (v) Vibrato

Intro and Verse:

G|-----------------------------------------------------------------------
D|-----------------------------------------------------------------------
A|--4--3--1-----4--3--1-----4--3--1-----4--3--1-----6--4--3-----6--4--3--
E|-----------------------------------------------------------------------

Chorus:

G|-----------------------------------------------
D|--6--3--6-----4--3--6-----4-----6--------------
A|--------------------------------------6--------
E|-----------------------------6-----------6--8--

Verse:

G|-----------------------------------------------
D|-----------------------------------------------
A|--4--3--1-----4--3--1-----6--4--3-----6--4--3--
E|-----------------------------------------------

Chorus:

G|-----------------------------------------------
D|--6--3--6-----4--3--6-----4-----6--------------
A|--------------------------------------6--------
E|-----------------------------6-----------6--8--

Interlude:

G|-----------------------------------------------
D|--------------------------------6-----------6--
A|--4--3--1-----4--3--1-----6--4--------6--4-----
E|-----------------------------------------------

Chorus:

G|-----------------------------------------------------------
D|--4--3--6-----4--3--------4-----6-----------6-----------6--
A|--------------------3-----------------6-----------6--4-----
E|-----------------------------6-----------6-----------------

							http://www.guitartabcreator.com
genre
Instruments
{"strings":[[[".",".",".","_",".",".",".","_",".",".",".","_",".",".",".","_",".",".",".","_",".",".","."],[".",".",".","_",".",".",".","_",".",".",".","_",".",".",".","_",".",".",".","_",".",".","."],[4,3,1,"_",4,3,1,"_",4,3,1,"_",4,3,1,"_",6,4,3,"_",6,4,3],[".",".",".","_",".",".",".","_",".",".",".","_",".",".",".","_",".",".",".","_",".",".","."]],[[".",".",".","_",".",".",".","_",".",".",".","_",".",".","."],[6,3,6,"_",4,3,6,"_",4,".",6,"_",".",".","."],[".",".",".","_",".",".",".","_",".",".",".","_",6,".","."],[".",".",".","_",".",".",".","_",".",6,".","_",".",6,8]],[[".",".",".","_",".",".",".","_",".",".",".","_",".",".","."],[".",".",".","_",".",".",".","_",".",".",".","_",".",".","."],[4,3,1,"_",4,3,1,"_",6,4,3,"_",6,4,3],[".",".",".","_",".",".",".","_",".",".",".","_",".",".","."]],[[".",".",".","_",".",".",".","_",".",".",".","_",".",".","."],[6,3,6,"_",4,3,6,"_",4,".",6,"_",".",".","."],[".",".",".","_",".",".",".","_",".",".",".","_",6,".","."],[".",".",".","_",".",".",".","_",".",6,".","_",".",6,8]],[[".",".",".","_",".",".",".","_",".",".",".","_",".",".","."],[".",".",".","_",".",".",".","_",".",".",6,"_",".",".",6],[4,3,1,"_",4,3,1,"_",6,4,".","_",6,4,"."],[".",".",".","_",".",".",".","_",".",".",".","_",".",".","."]],[[".",".",".","_",".",".",".","_",".",".",".","_",".",".",".","_",".",".","."],[4,3,6,"_",4,3,".","_",4,".",6,"_",".",".",6,"_",".",".",6],[".",".",".","_",".",".",3,"_",".",".",".","_",6,".",".","_",6,4,"."],[".",".",".","_",".",".",".","_",".",6,".","_",".",6,".","_",".",".","."]]],"numberofstrings":4,"notes":["G","D","A","E"],"capo":0,"stringnotes":["G2","D2","A1","E1"],"comments":["Intro and Verse:","Chorus:","Verse:","Chorus:","Interlude:","Chorus:"],"timing":[[null,null,null,null,null,null,null,null,null,null,null,null,null,null,null,null,null,null,null,null,null,null,null],[null,null,null,null,null,null,null,null,null,null,null,null,null,null,null,null,null,null,null,"W"],[null,null,null,null,null,null,null,null,null,null,null,null,null,null,null],[null,null,null,null,null,null,null,null,null,null,null,null,null,null,null,null,null,null,null,"W"],[null,null,null,null,null,null,null,null,null,null,null,null,null,null,null,null,null,null,null,"W"],[null,null,null,null,null,null,null,null,null,null,null,null,null,null,null,null,null,null,null,"W"]],"timingvisible":false,"tabcounter":19,"stave":5,"totalstaves":6,"instrument":"4bass","selectedtuning":"4bass","version":"13"}

Member for

4 weeks
Submitted by Euromagnet on Wed, 2020-10-28 07:37